Rooney - Stay Away Chords & Tabs

 

Stay Away Chords & Tabs

Rooney Chords & Tabs

Version: 1 Type: Tab 0 ratings
1 star 2 stars 3 stars 4 stars 5 stars
comments

Stay Away Tab

Rooney - Stay Away
by Alex Huth

Intro: (lead)
e|------------2-2222----------------------------------
B|-----2-222--2-2222----------------------------------
G|-3-5------5-------5---------------------------------
D|----------------------------------------------------
A|----------------------------------------------------
E|----------------------------------------------------

Intro & verse: (rhythm)
e|----------------------------------------------------
B|----------------------------------------------------
G|----------------------------------------------------
D|--666-6-66-6-6-6666-4-4444-3-4-4444-3---------------
A|--666-6-66-6-6-6666-4-4444-3-4-4444-3---------------
E|--444-4-44-4-4-4444-2-2222-1-2-2222-1---------------

repeat that a few times, then

e|----------------------------------------------------
B|----------------------------------------------------
G|-6-6-66-6-6666-6-8-8-88-8-88888---------------------
D|-6-6-66-6-6666-6-8-8-88-8-88888---------------------
A|-4-4-44-4-4444-4-6-6-66-6-66666---------------------
E|----------------------------------------------------


Chorus:
e|----------------------------------------------------
B|----------------------------------------------------
G|----------------------------------------------------
D|-6-6-6-6-6-6-6-6-6-6-6-6-6-6-6-6-4-4-4-4-4-4-4-4----
A|-6-6-6-6-6-6-6-6-6-6-6-6-6-6-6-6-4-4-4-4-4-4-4-4----
E|-4-4-4-4-4-4-4-4-4-4-4-4-4-4-4-4-2-2-2-2-2-2-2-2----

e|----------------------------------------------------
B|----------------------------------------------------
G|----------------------------------------------------
D|-4-4-4-4-4-4-4-4-3-3-3-3-3-3-3-3-3-3-3-3-3-3-3-3----
A|-4-4-4-4-4-4-4-4-3-3-3-3-3-3-3-3-3-3-3-3-3-3-3-3----
E|-2-2-2-2-2-2-2-2-1-1-1-1-1-1-1-1-1-1-1-1-1-1-1-1----
[ Tab from: http://www.guitartabs.cc/tabs/r/rooney/stay_away_tab.html ]
e|----------------------------------------------------
B|----------------------------------------------------
G|-6-6-66-6-6666-6-8-8-88-8-88888---------------------
D|-6-6-66-6-6666-6-8-8-88-8-88888---------------------
A|-4-4-44-4-4444-4-6-6-66-6-66666---------------------
E|----------------------------------------------------

rhythm may be a little off, try what sounds good.

verse again, etc.

interlude: (lead)
e|----------------------------------------------------
B|----------------------------------------------------
G|--5b6-5-6-3-5---------------------------------------
D|----------------------------------------------------
A|----------------------------------------------------
E|----------------------------------------------------

later (lead) (slightly palm muted) (with a little other jazz thrown in)
part that goes "leave us... alone..."
e|----------------------------------------------------
B|----------------------------------------------------
G|--5-6-5-6-5-6-5-6-3-5-3-5-3-5-3-5-------------------
D|----------------------------------------------------
A|----------------------------------------------------
E|----------------------------------------------------

rhythm:

e|----------------------------------------------------
B|----------------------------------------------------
G|--6-6-66-6-6-6-66-----------------------------------
D|--6-6-66-6-6-6-66-6-6-66-6-6-6-66-------------------
A|--4-4-44-4-4-4-44-6-6-66-6-6-6-66-------------------
E|------------------4-4-44-4-4-4-44-------------------

and at the end:
("far awayy...")
e|----------------------------------------------------
B|----------------------------------------------------
G|-8-8-8-8-8-8-8-8------------------------------------
D|-8-8-8-8-8-8-8-8------------------------------------
A|-6-6-6-6-6-6-6-6------------------------------------
E|----------------------------------------------------
etc.

Goes back to chorus, the lead guitar comes back in from the intro, ends on a 
e|----------------------------------------------------
B|----------------------------------------------------
G|-5b-------------------------------------------------
D|----------------------------------------------------
A|----------------------------------------------------
E|----------------------------------------------------
Comments