Rooney - Popstars Chords & Tabs

 

Popstars Chords & Tabs

Rooney Chords & Tabs

Version: 2 Type: Tab 0 ratings
1 star 2 stars 3 stars 4 stars 5 stars
comments

Popstars Tab

   
----------------------------------------------------------------------------
			     Popstars - Rooney
----------------------------------------------------------------------------
Tabbed by: Jeremie
Email: jimmyeatballs@hotmail.com

Tuning: Standard E


 Intro(Lead): 
e|--------7-6-------6----|
B|------8---------8------|
G|----8---------8--------|
D|-----------------------|
A|-----------------------|
E|-----------------------|
 0:08:
e|------------------------------------------|
B|------8~----8--9--8--9--8--9--8--9--8~----|
G|------8~----8--8--8--8--8--8--8--8--8~----|
D|------8~----8-----------------------------|
A|------6~----------------------------------|
E|------------------------------------------|



 Verse Chords:
      D#      B     C#
e|--------------------------|
B|----(8)----(4)----(6)-----|
G|-----8------4------6------|
D|-----8------4------6------|
A|-----6------2------4------|
E|--------------------------|




 Pre-Chorus Lead:
e|---6---6----6------6---6--------------------------|
B|-----7----------7----7------8h9-8-------8h9--11---|
G|----------8----8------------------10-8------------|
D|--------------------------------------------------|
A|--------------------------------------------------|
E|--------------------------------------------------|
      Toni----ght      Forev----er
e|-------------------------------------|
B|---(3)------(4)-----(3)------(6)-----|
G|----3--------4-------3--------6------|
D|----3--------4-------3--------6------|
A|----1--------2-------1--------4------|
E|-------------------------------------|
      Do   you   understand  my  monologue?
e|----------------------------------------|
B|---(4)(4)----(3)(3)-----------(6)-------|
G|----4--4------3--3-------------6--------|
D|----4--4------3--3-------------6--------|
A|----2--2------1--1-------------4--------|
E|----------------------------------------|
 

[ Tab from: http://www.guitartabs.cc/tabs/r/rooney/popstars_tab_ver_2.html ]
 Chorus:
     These are the words of the popstars
e|---------------------------------------|
B|--(8)-----------(6)--------------------|
G|---8-------------6---------------------|
D|---8-------------6------------6--------|
A|---6-------------4------------6--------|
E|------------------------------4--------|
     These are the words of the upsophisticated money-machines
e|-------------------------------------------------------------|
B|--(8)-----------(6)------------------------------------------|
G|---8-------------6-------------------------------------------|
D|---8-------------6------------3-------6-------3--------------|
A|---6-------------4------------3-------6-------3--------------|
E|------------------------------1-------4-------1--------------|
    For the killers of rock and roll 
e|------------------------------------|
B|------------------------------(8)---|
G|-------------------------------8----|
D|-----------6---------8---------8----|
A|-----------6---------8---------6----|
E|-----------4---------6--------------|



 Bridge:
     B      C#        D#
e|-------------------------------------|
B|-----------------------9-8-9-8-8-8~--|
G|-----------------------8-8-8-8-9-8~--|
D|---------------------8---------------|
A|---6-6--6-8--8/9--8------------------|
E|-------------------------------------|
     B      C#        D#
e|-------------------------------------|
B|-----------------------9-8-9-8-8-8~--|
G|-----------------------8-8-8-8-9-8~--|
D|---------------------8---------------|
A|---6-6--6-8--8/9--8------------------|
E|-------------------------------------|
     B      C#         F#                               Bb
e|-----------------------------------------------------------|
B|-----------------------------------------------------------|
G|-----------------------------------------------------------|
D|-------------------------------------------------------8~--|
A|---6-6--6-8--8/9--8--8/9--9-9--9-8-6--8/9--9-9-9-9-9-9-----|
E|-----------------------------------------------------------|
      Do   you   understand  my  monologue?
e|----------------------------------------|
B|---(4)(4)----(3)(3)-----------(6)-------|
G|----4--4------3--3-------------6--------|
D|----4--4------3--3-------------6--------|
A|----2--2------1--1-------------4--------|
E|----------------------------------------|


| /  slide up
| \  slide down
| h  hammer-on
| p  pull-off
| ~  vibrato
| +  harmonic
| x  Mute note
===============================================================================
Comments