Rooney - Pop Stars Chords & Tabs

 

Pop Stars Chords & Tabs

Rooney Chords & Tabs

Version: 1 Type: Bass Tab 0 ratings
1 star 2 stars 3 stars 4 stars 5 stars
comments

Pop Stars Bass Tab

Popstars - Rooney
Tabbed by Brett Madrid - voronwe@speakeasy.net

Very cool song.I am a guitar player but wanted my band to 
play this song so I tabbed it out for my bass player (my daughter).  
Here is the intro and the Chorus.  All I have to add yet is the bridge.  
Corrections welcome.

Intro
G|------------------------------------------|
D|------------------------------------------|
A|--5/6-6----5/6-6----5/6-6----5/6-6--------|
E|------------------------------------------|

0:21
G|--------------------------------------------------|   
D|--------------------------------------------------|
A|--6----6664----2----3/4----6----6664----2----4----|
E|--------------------------------------------------|
[ Tab from: http://www.guitartabs.cc/tabs/r/rooney/pop_stars_btab.html ]
Hey baby, You've hit me again one more time
You said bye bye bye bye bye good bye
Well I don't want to be with you 
0:34
G|----------------------------------------------------------------------|   
D|----------------------------------------------------------------------|
A|--6----6664----2-----4----6----6664----2----4----6----6664----2-----4-|
E|----------------------------------------------------------------------|

tonight forever
0:53
G|--------------------|   
D|--------------------|
A|--1----2----1----4--|
E|--------------------|

Do   you   understand  my  monologue?
1:01
G|-----------------|   
D|-----------------|
A|--2-2---1-1---4--|
E|-----------------|

*Chorus*
These are the words of the popstars
1:09
G|--------------------------------------|
D|--------------------------------------|
A|---6------------4---------------------|
E|------------------------------4-------|

These are the words of the unsophisticated money-machines
1:16
G|------------------------------------------------------|
D|------------------------------------------------------|
A|---6------------4-------------------------------------|
E|------------------------------1-------4-------1-------|

For the killers of rock and roll
1:24
G|------------------------------------------------------|
D|------------------------------------------------------|
A|--------------------6---------------------------------|
E|-------4-----6----------------------------------------|
Comments