Rooney - Im Shakin Chords & Tabs

 

Im Shakin Chords & Tabs

Rooney Chords & Tabs

Version: 1 Type: Tab 0 ratings
1 star 2 stars 3 stars 4 stars 5 stars
comments

Im Shakin Tab

Rooney - I'm Shakin'
[ Tab from: http://www.guitartabs.cc/tabs/r/rooney/im_shakin_tab.html ]
1st guitar
e|--------5-|x4  e|--------7-|x4
b|----5h7---|    b|----7h9---|
g|--5-------|    g|--7-------|
d|----------|    d|----------|
a|----------|    a|----------|
E|----------|    E|----------|  
play these 2 parts together 4 times up to "I forgotten what it feels like"

2nd guitar
e|----------|
b|----------|
g|-----6----|
d|--8--6--6-|
a|--8--4--6-|
E|--6-----4-|
this part comes after the first guitar plays the intro the first time through.
Comments