Rooney - Im A Terrible Person Chords & Tabs

 

Im A Terrible Person Chords & Tabs

Rooney Chords & Tabs

Version: 1 Type: Tab 0 ratings
1 star 2 stars 3 stars 4 stars 5 stars
comments

Im A Terrible Person Tab

--------------------------------------------------------------------------
             I'm a Terrible Person - Rooney
--------------------------------------------------------------------------
Tabbed by:Matt F.
Email:Shempgmr@aol.com

Tuning: Standard

      Intro: Palm Muted, Play this until needed.
e|--------------------------------------------------------------------------
B|--------------------------------------------------------------------------
G|--------------------------------------------------------------------------
D|--8-8-8-8-8-8-8-8-8-8-8---------------------------------------------------
A|--8-8-8-8-8-8-8-8-8-8-8---------------------------------------------------
E|--6-6-6-6-6-6-6-6-6-6-0---------------------------------------------------
  "i'm a terrible person..."

[ Tab from: http://www.guitartabs.cc/tabs/r/rooney/im_a_terrible_person_tab.html ]
      Verse: 
e|-------------------------------------------------|------------------------
B|-------------------------------------------------|------------------------
G|----------5-5-5-5--------------------------------|------------------------
D|-9-9-9-9--5-5-5-5--7-7-7-7--8-8-8-8--9--8--9-(2x)|------------------------
A|-9-9-9-9--3-3-3-3--7-7-7-7--8-8-8-8--9--8--9-----|------------------------
E|-7-7-7-7-----------5-5-5-5--6-6-6-6--7--6--7-----|------------------------

     Chorus:
e|---------------------------------------------------------------------
B|---------------------------------------------------------------------
G|---------------------------------------------------------------------
D|-8-8-8-8--5-5-5-5----------------------------------------------------
A|-8-8-8-8--5-5-5-5----------------------------------------------------
E|-6-6-6-6--3-3-3-3----------------------------------------------------

this comes after the chorus, im doing it off the top of my head so it should be right. 
e|---------------------------------------------------------------------
B|--9-7-------7-9-9b-9b-9b-9b-----------9------------------------------
G|------8-6-8-------------------8-6-8-6--------------------------------
D|---------------------------------------------------------------------
A|---------------------------------------------------------------------
E|---------------------------------------------------------------------
Comments