Rooney - If It Were Up To Me Chords & Tabs

 

If It Were Up To Me Chords & Tabs

Rooney Chords & Tabs

Version: 1 Type: Chords 0 ratings
1 star 2 stars 3 stars 4 stars 5 stars
comments

If It Were Up To Me Chords

   
Rooney
If It Were Up To Me
Standard Tuning
Great band! Check them out at www.rooney-band.com

*Just listen to the song to hear where everything goes and all the strum patterns*

Verses and Chorus

   A flat    F minor   D flat     E flat
E |--4---------1------------------------|
B |--4---------1---------6---------8----|
G |--5---------1---------6---------8----|
D |--6---------3---------6---------8----|
A |--6---------3---------4---------6----|
E |--4---------1------------------------|
[ Tab from: http://www.guitartabs.cc/tabs/r/rooney/if_it_were_up_to_me_crd.html ]
 Strum each chord 6 times and repeat for all the verses.
 The chorus has a different strum pattern with the same chords used in the
verses, with slight muting (not palm muting though) but its not that hard to
figure out. Just listen to the song and you should be able to pick out where
all the chords fit and what the strum patterns are.

Bridge
 F minor   D flat  B flat minor  E flat        
E |--1-------------------6--------------|    
B |--1---------6---------6----------8---|    
G |--1---------6---------6----------8---|    
D |--3---------6---------8----------8---|    
A |--3---------4---------8----------6---|    
E |--1-------------------6--------------|    

       A flat        E flat
E |-----4---4---------------|
B |-----4---4-------8---8---|
G |-----5---5-------8---8---|
D |-----6---6-------8---8---|
A |-----6---6-------6---6---|
E |-----4---4---------------|
Comments