Rooney - Daisy Duke Chords & Tabs

 

Daisy Duke Chords & Tabs

Rooney Chords & Tabs

Version: 2 Type: Tab 0 ratings
1 star 2 stars 3 stars 4 stars 5 stars
comments

Daisy Duke Tab

   
Daisy Duke by Rooney

h = hammer
p = pull off
b = bend

Questions, comments, hate mail, fire it off at delerious_me@msn.com
*Sorry for the previous fault in the chords. They have now been fixed.

INTRO

E--14--12--9--------------9----------
B-------------12--12--10-----12--10--
G------------------------------------
D------------------------------------  (Piano part plays once, then repeats with intro chords)
A------------------------------------
E------------------------------------


      A        E        b        E
E---------------------------------------
B---------------------------------------
G--------------------44444444-----------
D--77777777-22222222-44444444-22222222--
A--77777777-22222222-22222222-22222222--
E--55555555-00000000----------00000000--


VERSE
 
 <-------- Palm Muted --------------->
      A        E        b        E
E---------------------------------------
B---------------------------------------
G--------------------44444444----------- 
D--77777777-22222222-44444444-22222222-- x2
A--77777777-22222222-22222222-22222222--
E--55555555-00000000----------00000000--

    F#	       A	b	C#
E-----------------------------------------------
B-----------------------------------------------
G--------------------44444444--4---4---4-4---4--
D--44444444-77777777-44444444--6---6---6-6---6--
A--44444444-77777777-22222222--6---6---6-6---6--
E--22222222-55555555----------------------------
 			   "..bow down daisy duke"


CHORUS
[ Tab from: http://www.guitartabs.cc/tabs/r/rooney/daisy_duke_tab_ver_2.html ]
E--------------------------------      -----
B--------------------------------      -----
G-----------444------------------      --4--
D---4444----444----2222----7777--  x2  --6--
A---4444----222----2222----7777--      --6--
E---2222-----------0000----5555--      -----
 "You dont Know me so well..."         "Bow down Daisy Duke"



(After the second verse and the second chorus, this plays)

E------------------
G------------------
B--66666-----------
D--66666-77777777-- x 3
A--44444-77777777--
E--------55555555--
 "Bow Down Daisy Duke"


SOLO
E-----------------------------------------------------
B--------------------------------------12-10----------
G------------------------------------9-------9h10-11--
D--7-------------7-----7-9b-9-7-9-10------------------
A----9-7-9-9-7-9---9-7--------------------------------
E-----------------------------------------------------

E--------------------------------------------------------------
B--------------------------------------------------------------
G--------------------------------------------------------------
D--11-12-14----------------------7h9-9b-9-7-9-11p9h11----------
A-----------7-12p7-10p7-9-7-12-7----------------------11p9h11--
E--------------------------------------------------------------

E-----------------
B-----------------
G-----------------
D-----------------
A--5-7-5----------
E--------9-7-5-2--

While rythm guitar repeats chorus twice in the background.


BRIDGE

Repeat Chorus chords twice, and then...

E------------------------------------------
B------------------------------------------
G------------------------------------------
D--7-------------7-----7-11-7--------------
A----9-7-9-9-7-9---9-7--------9-7-9-9-7-9--
E------------------------------------------

E---------------------
B---------------------
G---------------------
D-9/11-9/11-11-11-11-- x 3 
A---------------------
E---------------------

End on 

E------------------      ----------
G------------------      ----------
B--66666-----------      --6666----
D--66666-77777777-- x 2  --6666-4--
A--44444-77777777--      --4444-4--
E--------55555555--      -------2--
 "Bow Down Daisy Duke"



Song Order

Intro 
Verse
Chorus
Verse
Chorus 
Bridge
Chorus
Comments