Rooney - Blueside Chords & Tabs

 

Blueside Chords & Tabs

Rooney Chords & Tabs

Version: 1 Type: Tab 0 ratings
1 star 2 stars 3 stars 4 stars 5 stars
comments

Blueside Tab

   
-------------------------------------------------------------------------------
			     Blueside - Rooney
-------------------------------------------------------------------------------
Tabbed by: MinasTirith
Email:



Chord used

Vers

  Bm   Bm\A   Bm\G#   G   F#
E|2------2------2------
B|3------3------3------
G|4------4------4------
D|4------4------4------
A|2------0------x------
E|2------x------4------


You can use also a capo at second fret and do Am - Am\A - Am\G# - F - E
 
 Am    Am\A   Am\G#   F   E
E|0------0------0------
B|1------1------1------
G|2------2------2------
D|2------2------2------
A|0------0------0------
E|0------3------2------



Chorus

B - Dm - C#m - F#  



Riff a 07 sec

e|------------------------------------------------------------------------------------|
B|------------------------------------------------------------------------------------|
G|-2/11-11b-11b-11b-9----------9/11-11-9--------------------------9-11b--9/s11b--9/11b|
D|--------------------12-11-9b-----------12-11-9--8-9-11--9-11-12---------------------| 
A|------------------------------------------------------------------------------------|
E|------------------------------------------------------------------------------------|
then follow the riff



Riff at 1:43 sec 

E|2/14b--1/13b--0/12b----------------------------------------------------------------------|
B|---------------------2/3b-2b-------------------------------------------------------------|
G|---------------------------------4b--4-6-7-9-11b--9b--7--4b-6b-7b-9b-11b-12b--16b-15b-16b|
D|-----------------------------------------------------------------------------------------|
A|-----------------------------------------------------------------------------------------|
E|-----------------------------------------------------------------------------------------|


Riff a 2:17
[ Tab from: http://www.guitartabs.cc/tabs/r/rooney/blueside_tab.html ]
e|---------------------------------------------------------------------------|
B|---------------------------------------------------------------------------|
G|-4-x-4-x-4-x-4-x-4-x-4/16\4------------------------------------------------|
D|---------------------------------------------------------------------------|
A|---------------------------------------------------------------------------|
E|---------------------------------------------------------------------------|


Riff a 2:21 

E|-7------------------------
B|--7-7-10--9-7-5-4-2-4-5-7-  then repeat
G|---8----------------------
D|---------------------------------------------------------------------------|
A|---------------------------------------------------------------------------|
E|---------------------------------------------------------------------------|



Final solo first part.. Start at 2:28 and end at 2:54

E|-12/14-12/14-12---------14-14-12-------------------------------------------|
B|---------------15-14-12----------15-14-12--11-12-14-15---------------------|
G|---------------------------------------------------------------------------|
D|---------------------------------------------------------------------------|
A|---------------------------------------------------------------------------|
E|---------------------------------------------------------------------------|


Solo second part at 2:55 until a 3:02

E|---------------------12----------------------------------------------------|
B|-15\12-12\10-12-14-15--15-14-12-----10-10-10-10-10-10--12-10---10-12-10----|
G|---------------------------------9-9-------------------------9-------------|
D|---------------------------------------------------------------------------|
A|---------------------------------------------------------------------------|
E|---------------------------------------------------------------------------|


Solo third part at 3:03

E|12-11-10------14-12-10--------------------11--11---------------------------|
B|--------12------------14-12-11-12-14-12-14--14-----------------------------|
G|---------------------------------------------------------------------------|
D|---------------------------------------------------------------------------|
A|---------------------------------------------------------------------------|
E|---------------------------------------------------------------------------|


| /  slide up
| \  slide down
| h  hammer-on
| p  pull-off
| ~  vibrato
| +  harmonic
| x  Mute note
====================================================
Comments