Ronnie Montrose - Space Age Sacrifice Chords & Tabs

 

Space Age Sacrifice Chords & Tabs

Ronnie Montrose Chords & Tabs

Version: 1 Type: Bass Tab 0 ratings
1 star 2 stars 3 stars 4 stars 5 stars
comments

Space Age Sacrifice Bass Tab

TITLE: Space Age Sacrifice          by Ronnie Montrose
CD: Paper Money       TABBED by Rick Huff     Email: hawkhuff

  Intro:
G-------|-------------|-------------------------------------------------|
D-------|-------------|-------------------------------------------------|
A-------|---------3-3-|-------------------------------------------------|
E--3-5--|-3-5-3-5-----|-5-5-5-5-5-5-5-5-5-5-5-5-5-5-5-5-5-5-5-5-5-5-5-5-|

  Verse:
G-----------|----------------------------------|
D--7-7--567-|-7-7-7-7-7-7-7-7-7-7-7-7-7-7-7-7--|
A------7----|----------------------------------|
E-----------|----------------------------------|

  Chorus: 4x
G----------------------|---------|
D----------------------|-7-7-7-7-|
A--7-7-7-7-h57-5-------|---------|
E---------------\753-0-|---------|

  Verse:
G-----------|----------------------------------|
D--7-7--567-|-7-7-7-7-7-7-7-7-7-7-7-7-7-7-7-7--|
A------7----|----------------------------------|
E-----------|----------------------------------|
[ Tab from: http://www.guitartabs.cc/tabs/r/ronnie_montrose/space_age_sacrifice_btab.html ]
  Chorus: 4x
G----------------------|---------|
D----------------------|-7-7-7-7-|
A--7-7-7-7-h57-5-------|---------|
E---------------\753-0-|---------|

  Bridge:
G------------------------|---------------------------------|
D------------------------|---------------------------------| 
A------------------------|---------------------------------|
E--11--110-1-2-33-332345-|-5-5-5-5-5-5-5-5-5-5-5-5-5-5-5-5-|

  Verse:
G-----------|----------------------------------|
D--7-7--567-|-7-7-7-7-7-7-7-7-7-7-7-7-7-7-7-7--|
A------7----|----------------------------------|
E-----------|----------------------------------|

  Chorus: 4x
G----------------------|
D----------------------|
A--7-7-7-7-h57-5-------|
E---------------\753-0-|




  Bridge:
G----------------------|---------------------------------|
D----------------------|---------------------------------| 
A----------------------|---------------------------------|
E--11--110-1-2-33-2345-|-5-5-5-5-5-5-5-5-5-5-5-5-5-5-5-5-|

  Outro:
G----------------------------------------|
D----------------------------------------|
A--555555555555333333333333--------------|
E--------------------------5S35S35S35S35-|


comments, questions:   hawkhuff@msn.com
Comments