Ronnie Montrose - Rock Candy Chords & Tabs

 

Rock Candy Chords & Tabs

Ronnie Montrose Chords & Tabs

Version: 1 Type: Tab 0 ratings
1 star 2 stars 3 stars 4 stars 5 stars
comments

Rock Candy Tab

   
Montrose - Rock Candy
Submitted By: shredfan
EMail: shredfan@yahoo.com

Tuning: Standard (E A D G B E)                              D   A  4x
||-----------------------------2-------||
||-----------------------------3---2---||
||*----------------------------2---2--*||
||*-----2----------2-------2---0---2--*||
||---------------2-----------------0---||
||-0-3b----0-3-4------0-3b-------------||

[ Tab from: http://www.guitartabs.cc/tabs/r/ronnie_montrose/rock_candy_tab.html ]
 (verse)  E                       E          repeat thru chorus
||---------0-----------------------0-----------------||
||---------0------3----------------0-----------------||
||*--------1---/4---4/2p0----------1----------------*||
||*--------2--------------2--------2-------------0--*||
||---------2-----------------------2---------0-2-----||
||---0--0--0-----------------0--0--0---0-3-4---------||


the chorus is equally simple:

                A                                                E
|----------------------------------------------------------------0-|
|---------------2---2-------3----3-----5----5-----3----3---------0-|
|---------------2---2--------------------------------------------1-|
|---------------2---2-------4----4-----5----5-----4----4---------2-|
|---------------0---0-----0----0-0---0----0-0---0----0-0---------2-|
|---------------------------------------------------------3b-0-0-0-|
Comments