Ronan Keating - When You Say Nothing At All Chords & Tabs

 

When You Say Nothing At All Chords & Tabs

Ronan Keating Chords & Tabs

Version: 3 Type: Tab 0 ratings
1 star 2 stars 3 stars 4 stars 5 stars
comments

When You Say Nothing At All Tab

WHEN YOU SAY NOTHING AT ALL
 Ronan Keating


Transcribed by Jibesh (jibesh@hotmail.com)

 Words and Music by Paul Overstreet and Don Schlitz
Arranged by Benjie Lucero Jr.
 
 h   - hammer-on
 p   - pull-off
 b   - bend
 s   - legato slide
 S   - shift slide
 - natural harmonic
[n]  - artificial harmonic
n(n) - tapped harmonic
 =   - hold bend; also acts as connecting device for hammers/pulls
 
 Intro
 
 4/4
 Let ring throughout
|-------------2-3-|---------------2h3-|-[3]-----------2-3-|---------------2h3-||
|-----3-----------|-----3-------3-----|-------3-----------|-----3-------3-----||
|-------0---2-----|-------0---2-------|---------0---2-----|-------0---2-------||
|---0-----0-------|---2-----0---------|-----0-----0-------|---2-----0---------||
|-----------------|-3-----------------|-------------------|-3-----------------||
|-3---------------|-------------------|--3----------------|-------------------||


 Verse
|-------------2-3-|---------------2h3-|-------------2-3-|---------------2h3---|
|-----3-----------|-----3-------3-----|-----3-----------|-----3-------3-------|
|-------0---2-----|-------0---2-------|-------0---2-----|-------0---2---------|
|---0-----0-------|---2-----0---------|---0-----0-------|---2-----0-----------|
|-----------------|-3-----------------|-----------------|-3-------------------|
|-3---------------|-------------------|-3---------------|---------------------|


|-------------2-3-|---------------2h3-|-------------2-3-|---------------2h3---|
|-----3-----------|-----3-------3-----|-----3-----------|-----3-------3-------|
|-------0---2-----|-------0---2-------|-------0---2-----|-------0---2---------|
|---0-----0-------|---2-----0---------|---0-----0-------|---2-----0-----------|
|-----------------|-3-----------------|-----------------|-3-------------------|
|-3---------------|-------------------|-3---------------|---------------------|


                                       2/4
|-------------------|---------2-------|---------|---------|---------|
|-----3---------3---|-----3-------3---|-----3---|-----3---|-----3---|
|-------0-(0)-----0-|---2---2---2---2-|-------0-|---2---2-|-------0-|
|---2---------0-----|-0---------------|---0-----|-0-------|---2-----|
|-3-----------------|-----------------|---------|---------|-3-------|
|-------------------|-----------------|-3-------|---------|---------|


                                      Chorus
 4/4
|---------0-------|---------2-------||-------------2-3-|-----------0-----|
|-----3-------3---|-----3-------3---||-----3-----------|-----3-------3---|
|---2---2---2---2-|---2---2---2---2-||-------0---2-----|-------0-------2-|
|-0---------------|-0---------------||---0-----0-------|---2-----0-------|
|-----------------|-----------------||-----------------|-3---------------|
|-----------------|-----------------||-3---------------|-----------------|


|-------------2-3-|-----------0---3-|-----------5---2-3-|-----------------|
|-----3-----------|-----3-------3---|-------3-----------|-------3-------3-|
|-------0---2-----|-------0---------|---------0---2-----|-----0-------0---|
|---0-----0-------|---2-----0-------|-----0-----0-------|---2-------2-----|
|-----------------|-3---------------|-------------------|-3-------3-------|
|-3---------------|-----------------|--3----------------|-----------------|


|---------0-------|-3-----3-5-------|-3--------------7------|-5----|
|-----3-------3---|-----3-------3---|-------3S8-------------|-3----|
|---2---2---2---2-|---0-------2---2-|-----0-----------------|-2----|
|-0---------------|-2-------0-------|---2-------------------|-0----|
|-----------------|-----3-----------|-3----------7----------|------|
|-----------------|-----------------|---------8-------------|------|


|-----------------------------|-----------------|
|-------3----3------1-------0-|-----3-------3-1-|
|-----0---2-----2p0-------0---|-0-----0---2---0-|
|---0-------------------------|---2-----0-------|
|-----------------------------|-3---------------|
|-3---------------------------|-----------------|


|------------10----------------------------------|-3--------------------2---3---||
|------------------------------13----------------|-----3----------3--1------0---||
|----------0----------------------------11-------|-------0---0-2--4-----2-------||
|---0-----------------12-------------------------|---2-----0--------------------||
|--------------------------12-----(12)-----------|-3----------------------------||
|-3----------10-------------------(10)-----------|------------------------------||


 Verse 2
|-------------2-3-|---------------2h3-|-------------2-3-|---------------2h3---|
|-----3-----------|-----3-------3-----|-----3-----------|-----3-------3-------|
|-------0---2-----|-------0---2-------|-------0---2-----|-------0---2---------|
|---0-----0-------|---2-----0---------|---0-----0-------|---2-----0-----------|
|-----------------|-3-----------------|-----------------|-3-------------------|
|-3---------------|-------------------|-3---------------|---------------------|


|-[3]---------3-2---|---------------2h3-|-------------2-3-|-----------------------|
|-------3---------3-|-----3-------3-----|-----3-----------|-----3-----------------|
|---------0-------0-|-------0---2-------|-------0---2-----|-------0---------0---7-|
|-----2-------------|---2-----0---------|---0-----0-------|---2-----0-------------|
|-----------0-------|-3-----------------|-----------------|-3---------------------|
|--0----------------|-------------------|-3---------------|-----------------------|



                                         2/4
|---------------------|---------2-------|-7-------|-5-------|-3-------||
|------------------10-|-----3-------3---|-----3---|-----3---|-----3---||
|-----0----------0----|---2---2---2---2-|---------|---2---2-|-------0-||
|---------------------|-0---------------|-------5-|-0-------|---2-----||
|---7----------7------|-----------------|---5-----|---------|-3-------||
|-8----------8--------|-----------------|-3-------|---------|---------||


 Chorus
 4/4
|---------0-------|-----3-------2-3-|-----3-----0-----|-----3-------2-3-|
|-----3-------3---|-----3-------3---|-----3-------3---|-----3-------3---|
|---2---2---2---2-|-------0---2-----|-------0-------2-|-------0---2-----|
|-0---------------|---0-----0-------|---2-----0-------|---0-----0-------|
|-----------------|-----------------|-3---------------|-----------------|
|-----------------|-3---------------|-----------------|-3---------------|

[ Tab from: http://www.guitartabs.cc/tabs/r/ronan_keating/when_you_say_nothing_at_all_tab_ver_3.html ]
|-----3-----------|-----3-----------|-----3-------3---|---------0-----5S=|
|-----3-------3---|-----3-------3---|-----3-------3---|-----3-------3----|
|-------0---2---2-|-------0---2---2-|-------0-------0-|---2---2---2------|
|---2-----0-------|---0-----0-------|---2-------2-----|-0----------------|
|-3---------------|-----------------|-3-------3-------|------------------|
|-----------------|-3---------------|-----------------|------------------|


|-3-----3S5-------|-3---------3---------|-5-----------------5--||
|-----3-------3---|-3-------0-----------|-------5-7-------8----||
|---0-------2---2-|-0----0--------<12>--|-7---7-----7---7------||
|-2-------0-------|---2---------0-<12>--|---7---------7---0----||
|-----3-----------|-3-------------------|-5--------------------||
|-----------------|---------------------|----------------------||


 Guitar Solo
|--------0-------7-9-|-(9)-7-5-4-(4)-2-(2)--|
|-<12>-----------7---|-------5-------4-(4)--|
|--------1-------8-9-|-(9)-8-6-4-(4)-4-(4)--|
|----------2---------|------------------4---|
|------2-------9-----|--0---------2---------|
|---0--------7-------|----------------------|


|-2s4-0---2---4----|-----------------------2--4---|
|-------0--------2-|-(2)--------------4--5--------|
|-2s4---------4--2-|-------2-------4----------4---|
|------------------|-----2---2---4----4-----------|
|-----------2------|--0--------2-----(2)-----(2)--|
|---0--------------|------------------------------|


|-0-------(0)-0----------------7--|
|----------0----0--------9-----9--|
|-------1-------------9-----9-----|
|-----2-------------9----9--------|
|---2-----------------------------|
|-0---------------7-----(7)---(7)-|


|-9--------11--9-7-------|--9--------5--4--(4)-5-4---|-------7-9-(9)-9p7-9-----|
|-------10----10-7---7---|-10---<12>-2-(2)-------2-7-|-(7)-9---7-(7)-----7-----|
|-----9----11--------8---|----9--(9)-2-(2)-------2-8-|-(8)-----8-(8)---8---<7>-|
|---7------------------9-|---------------------2-----|-------9-----------------|
|-0----------------9-----|--0---------------0--------|-----9-------------------|
|----------------7-------|---------------------------|--7---------7------------|

   Chorus
||---------3-------2-3-|-----3-----0-----|-----3-------2-3--|
||---------3-------3---|-----3-------3---|-----3-------3----|
||-(<7>)-----0---2-----|-------0-------2-|-------0---2------|
||-------0-----0-------|---2-----0-------|---0-----0--------|
||---------------------|-3---------------|------------------|
||---3-----------------|-----------------|-3----------------|




|-----3-------3---|------------5--(5)-------|
|-----3-------3---|-<12>-----0-3--(3)-----8-|
|-------0-------0-|--------0---2--(2)--7----|
|---2-------2-----|------0-----0--(0)-(0)---|
|-3-------3-------|-------------------------|
|-----------------|-------------------------|


|--5S=7-----5-(5)-------|-[3]-----------------|
|-------8-----------3---|-------3-------3-----|
|---------7-------2---2-|---------0-------0---|
|-(0)----------0--------|-----2-------2-------|
|-----------------------|--3--------3---------|
|-----------------------|---------------------|


|---------0-------|-3-----3-[5]-------|-3--------|-2----|
|-----3-------3---|-----3---------3---|-3--------|-3----|
|---2---2---2---2-|---0---------2---2-|-0--------|-2----|
|-0---------------|-2--------0--------|-2--------|-0----|
|-----------------|-----3-------------|-3--------|------|
|-----------------|-------------------|----------|------|


|-----------------|----------------------2---3--|
|-----3-------3---|-----3----------3--1------0--|
|-------0---2---2-|-------0---0-2--4-----2------|
|---0-----0-------|---2-----0-----(0)---(0)-(0)-|
|-----------------|-3---------------------------|
|-3---------------|-----------------------------|


|------------10------(10)------------------------|
|------------------------------13-(13)-----------|
|-0--------0----------------------------11--<12>-|
|---0-<12>------------12-------------------------|
|--------------------------12-----(12)-----------|
|-3----------10-(10)------(10)----(10)-(10)-(10)-|


|-3-------------2h3-|-------------2-3-|---------------2h3-|-------------2-3---|
|-----3-------3-----|-----3-----------|-----3-------3-----|-----3-------------|
|-------0---2-------|-------0---2-----|-------0---2-------|-------0---2-------|
|---2-----0---------|---0-----0-------|---2-----0---------|---0-----0---------|
|-3-----------------|-----------------|-3-----------------|-------------------|
|-------------------|-3---------------|-------------------|-3-----------------|


|----------------2h3-|-------------2-3-|---------------2h3-|-------------2-3---|
|------3-------3-----|-----3-----------|-----3-------3-----|-----3-------------|
|--------0---2-------|-------0---2-----|-------0---2-------|-------0---2-------|
|----2-----0---------|---0-----0-------|---2-----0---------|---0-----0---------|
|--3-----------------|-----------------|-3-----------------|-------------------|
|--------------------|-3---------------|-------------------|-3-----------------|

|----------------2h3-|-------------2-3-|---------------2h3-|-------------2-3---|
|------3-------3-----|-----3-----------|-----3-------3-----|-----3-------------|
|--------0---2-------|-------0---2-----|-------0---2-------|-------0---2-------|
|----2-----0---------|---0-----0-------|---2-----0---------|---0-----0---------|
|--3-----------------|-----------------|-3-----------------|-------------------|
|--------------------|-3---------------|-------------------|-3-----------------|

||----------------2h3-|-------------2-3-|---------------2h3-|-3-------3--------5-||
||o-----3-------3-----|-----3-----------|-----3-------3-----|-------------<12>-3-||
||--------0---2-------|-------0---2-----|-------0---2-------|-------0-----<12>-2-||
||----2-----0---------|---0-----0-------|---2-----0---------|-----0-----2------0-||
||o-3-----------------|-----------------|-3-----------------|---2-----3----------||
||--------------------|-3---------------|-------------------|-3------------------||


                    

  
Lyrics:

When You Say Nothing At All

It's amazing how you can speak right to my heart
Without saying a word you can light up the dark
Try as I may I can never explain
What I hear when you don't say a thing

The smile on your face lets me know that you need me
There's a truth in your eyes saying you'll never leave me
The touch of your hand says you'll catch me wherever I fall
You say it best, when you say nothing at all

All day long I can hear people talking out loud
But when you hold me you drown out the crowd
Try as they may they can never defy
What's been said between your heart and mine

The smile on your face let's me know that you need me
There's a truth in your eyes saying you'll never leave me
The touch of your hand says you'll catch me wherever I fall
You say it best, when you say nothing at all

The smile on your face let's me know that you need me
There's a truth in your eyes saying you'll never leave me
The touch of your hand says you'll catch me wherever I fall
You say it best, when you say nothing at all

You say it best when you say nothing at all
You say it best when you say nothing at all
The smile on your face
The truth in your eyes
The touch of your hand
Let's me know that you need me
Comments