Ronan Keating - When You Say Nothing At All Chords & Tabs

 

Ronan Keating Chords & Tabs

Version: 1 Type: Tab 0 ratings
1 star 2 stars 3 stars 4 stars 5 stars
comments

When You Say Nothing At All Tab

   
Person: Chris Marks

song: When You Say Nothing At All (acoustic version)

artist: Ronan Keating

tab: Ronan Keating - When You Say Nothing At All (acoustic version)
Album: When You Say Nothing At All (single)
tabbed by: Chris Marks
email: vvhat_is@hotmail.com

Intro:
E----|------------2-3-|--------------23|------------2-3-|--------------23|
B----|----3-----------|----3-------3---|----3-----------|----3-------3---|
G----|------0---2-----|--0---0---2-----|------0---2-----|--0---0---2-----|
D---0|--0-----0-------|--------0-------|--0-----0-------|--------0-------|
A-02-|----------------|3---------------|----------------|3---------------|
E----|3---------------|----------------|3---------------|----------------|


Verse 1:
|------------2-3-|--------------23|------------2-3-|--------------23|
|----3-----------|----3-------3---|----3-----------|----3-------3---|
|------0---2-----|--0---0---2-----|------0---2-----|--0---0---2-----|
|--0-----0-------|--------0-------|--0-----0-------|--------0-------|
|----------------|3---------------|----------------|3---------------|
|3---------------|----------------|3---------------|----------------|
 It's             Can

|------------2-3-|--------------23|------------2-3-|--------------23|
|----3-----------|----3-------3---|----3-----------|----3-------3---|
|------0---2-----|--0---0---2-----|------0---2-----|--0---0---2-----|
|--0-----0-------|--------0-------|--0-----0-------|--------0-------|
|----------------|3---------------|----------------|3---------------|
|3---------------|----------------|3---------------|----------------|
 Without                  You


Prechorus 1:
|--------3-------|--------2-------|
|----3-------3---|----3-------3---|
|--0---0---0---0-|--2---2---2---2-|
|----------------|0---------------|
|3---------------|----------------|
|----------------|----------------|
 Try              Never

|------------2-3-|--------|---------0-------|--------2-------|
|----3-----------|----3---|-----3-------3---|----3-------3---|
|------0---2-----|--0---0-|---2---2---2---2-|--2---2---2---2-|
|--0-----0-------|--------|-0---------------|0---------------|
|----------------|3-------|-----------------|----------------|
|3---------------|--------|-----------------|----------------|
   What           Don't


Chorus:
|------------2-3-|--------------23|
|----3-----------|----3-------3---|
|------0---2-----|--0---0---2-----|
|--0-----0-------|--------0-------|
|----------------|3---------------|
|3---------------|----------------|
 Smile              Let's

|------------2-3-|--------------23|
|----3-----------|----3-------3---|
|------0---2-----|--0---0---2-----|
|--0-----0-------|--------0-------|
|----------------|3---------------|
|3---------------|----------------|
 Truth            You'll

|------------2-3-|---------3-------|--------0-------|----------------|
|----3-----------|-----3-------3---|----3-----3-3---|----3-------3---|
|------0---2-----|---0---0---0---0-|--2---2-------2-|--0---0---2---2-|
|--0-----0-------|-----------------|0---------------|2-------4-------|
|----------------|-3---------------|----------------|----------------|
|3---------------|-----------------|----------------|----------------|
   Touch          Catch             Fall

|--------3-------|2---------------|
|----3-------3---|3---------------|
|--0---0---0---0-|2---------------|
|----------------|0---------------|
|3---------------|----------------|
|----------------|----------------|
 You                When


Interlude:
|------------2-3-|--------------23|------------2-3-|--------------23|
|----3-----------|----3-------3---|----3-----------|----3-------3---|
|------00--2-----|--0---0---2-----|------0---2-----|--0---0---2-----|
|--0-----0-------|--------0-------|--0-----0-------|--------0-------|
|----------------|3---------------|----------------|3---------------|
|3---------------|----------------|3---------------|----------------|


Verse 2:
|------------2-3-|--------------23|------------2-3-|------------2-23|
|----3-----------|----3-------3---|----3-----------|----3----3------|
|------0---2-----|--0---0---2-----|------00--2-----|--0---00--------|
|--0-----0-------|--------0-------|--0-----0-------|--------0-0-----|
|----------------|3---------------|----------------|3---------------|
|3---------------|----------------|3---------------|----------------|
   All            Hear
[ Tab from: http://www.guitartabs.cc/tabs/r/ronan_keating/when_you_say_nothing_at_all_tab.html ]
|----------------|------------2-23|------------2-3-|------------2-23|
|----3-------3---|----3-------3---|----3-----------|----3-------3---|
|--0---0---0---0-|--0---0---2-----|------00--2-----|--0---00-2------|
|2---------------|--------0-------|--0-----00------|--------0-0-----|
|--------2-------|3---------------|----------------|3---------------|
|----------------|----------------|3---------------|----------------|
   But                    Drown


Prechorus 2:
|----------0-----|----------2^----|  ^ means hammer down one fret up,
then release quickly
|----3-------3---|----3-------3---|
|--0---0-------0-|--2---2---2---2-|
|--------2-------|0-------0-------|
|3-------3-------|----------------|
|----------------|----------------|
 Try              Never

|------------2-3-|--------|--------0-------|
|----3-----------|----3---|----3-------3---|
|------0---2-----|--0---0-|--2---2---0-2-2-|
|--0-----0-----00|--------|0---------------|
|----------------|3-------|----------------|
|3---------------|--------|----------------|
   What's           Heart


Chorus:
|------------2-3-|----------2^--23|
|----3-----------|----3-------3---|
|------0---2-----|--0---0---2-----|
|--0-----0-------|--------0-------|
|----------------|3---------------|
|3---------------|----------------|
(same)

|------------2-3-|------------2-23|
|----3-----------|----3-------3---|
|------0---2-----|--0---0---2-----|
|--0-----0-------|--------0-------|
|----------------|3---------------|
|3---------------|----------------|


|------------2-3-|--------3-------|--------0-------|----------------|
|----3-----------|----3-------3---|----3-----3-0---|----3-------3---|
|------0---2-----|--0---0---0---0-|--2---2-------0-|--0---0---2---2-|
|--0-----0-------|----------------|0---------------|2-------4-------|
|----------------|3---------------|----------------|----------------|
|3---------------|----------------|----------------|----------------|


|--------3-------|2---------------|
|----3-------3---|3---------------|
|--0---0---0---0-|2---------------|
|----------------|0---------------|
|3---------------|----------------|
|----------------|----------------|


Flute Solo:
E, B, A, B X3
A, A, B, B


Chorus:
|------------2-3-|------------2-23|
|----3-----------|----3-------3---|
|------0---2-----|--0---0---2-----|
|--0-----0-------|--------0-------|
|----------------|3---------------|
|3---------------|----------------|
(same)

|------------2-3-|--------3-------|3-------3-------|
|----3-----------|----3-------3---|----3-------3---|
|------0---2-----|--0---0---0---0-|--0---0---0---0-|
|--0-----0-------|----------------|----------------|
|----------------|3---------------|----------------|
|3---------------|----------------|----------------|


|------------2-3-|--------3-------|--------0-------|----------------|
|----3-----------|----3-------3---|----3-----3-3---|----3-------3---|
|------0---2-----|--0---0---0---0-|--2---2-------2-|--0---0---2---2-|
|--0-----0-------|----------------|0---------------|2-------4-------|
|----------------|3---------------|----------------|----------------|
|3---------------|----------------|----------------|----------------|


|--------3-------|2---------------|3---------------|
|----3-------3---|3---------------|3---------------|
|--0---0---0---0-|2---------------|0---------------|
|----------------|0---------------|0---------------|
|3---------------|----------------|2---------------|
|----------------|----------------|3---------------|

Verse 1:
It's amazing how you can speak right to my heart
Without saying a word, you can light up the dark

Prechorus 1:
Try as I may I can never explain
What I hear when you don't say a thing

Chorus:
The smile on your face, lets me know that you need me
There's a truth in your eyes, saying you'll never leave me
The touch of your hand says you'll catch me where ever I fall...
You say it best, when you say nothing at all

Verse 2:
All day long I can hear people talking out loud
But when you hold me near, you drown out the crowd

Prechorus 2:
Try as they may they can never define
What's been said between your heart and mine

Chorus:
The smile on your face, lets me know that you need me
There's a truth in your eyes, saying you'll never leave me
The touch of your hand says you'll catch me where ever I fall...
You say it best, when you say nothing at all

(Solo)

Chorus:
Oooh, That smile on your face, lets me know that you need me
There's a truth in your eyes, saying you'll never leave me...
The touch of your hand says you'll catch me where ever I fall...
You say it best... when you say nothing at all

Comments