Ronan Keating - When You Say Nothing At All Chords & Tabs

 

When You Say Nothing At All Chords & Tabs

Ronan Keating Chords & Tabs

Version: 3 Type: Chords 0 ratings
1 star 2 stars 3 stars 4 stars 5 stars
comments

When You Say Nothing At All Chords

   
YO SCOUSE HERE AGAIN.SINCE I SEEN THIS ON NOTTING HILL I WANTED TO LURN
IT,SO I DID!!! IT'S PRITTY STRAIGHT FORWARD SO HAVE FUN!
[ Tab from: http://www.guitartabs.cc/tabs/r/ronan_keating/when_you_say_nothing_at_all_crd_ver_3.html ]
e|-----3-----------------2--h3----------|
B|--------3-----------3-----------------|
G|-----------0-----2--------------------|
D|--------------0-----------------------|         H= HAMMER ON
A|--------------------------------------|
E|--3-----------------------------------|
  IT'S AMAZING HOW YOU                            X4
e|-----3-----------------2--h3----------|
B|--------3-----------3-----------------|
G|-----------0-----2--------------------|
D|--------------0-----------------------|
A|--3-----------------------------------|
E|--------------------------------------|
   CAN SPEAK RIGHT TO MY HEART...

  C                  G             D                        C     D  
TRY AS I MAY I CAN NEVER EXPLAIN WHAT I HEAR WHEN YOU DONT SAY A THING

G                   D            C             D
THE SMILE ON YOUR FACE LETS ME KNOW THAT YOU NEED ME 
  G                      D           C            D
THERES A TRUTH IN YOUR EYES SAYIN YOU'LL NEVER LEAVE ME
      G             D                C                  D
THE TOUCH OF YOUR HAND SAYS YOU'LL CATCH ME WHEREVER I FALL
 C                  D 
YOU SAY IT BEST...WHEN YOU SAY NOTHIN AT ALL

(BACK TO INTRO FOR SECOND VERSE)
Comments