Ronan Keating - If Tomorrow Never Comes Chords & Tabs

 

If Tomorrow Never Comes Chords & Tabs

Ronan Keating Chords & Tabs

Version: 1 Type: Bass Tab 0 ratings
1 star 2 stars 3 stars 4 stars 5 stars
comments

If Tomorrow Never Comes Bass Tab

Verse1:
“Sometimes late at
 night..”
G-----------|-----------|-----------|------------|
D-----------|-----------|-1---------|------------|
A-3---------|-----------|--—-1------|-1—-1-------|
E-----------|-1---------|---------1-|------------|

G-----------|-----------|-----------|------------|
D-----------|------1----|------1----|------------|
A------3----|-----------|-1---------|-1----------|
E-1—-1------|-1--1------|-----------|------------|

G-----------|-----------|-----------|------------|
D-----------|-----------|-----------|------------|
A-3---3-3---|-----------|-6---------|------------|
E-----------|-1---1-1--/|-----6-6---|-6---6-6---\|

G-----------|-----------|-----------|------------|
D-----------|----3-1-—3-|-------1---|------------|
A------3----|-----------|-1---1-----|-1----------|
E-1--1------|-1---------|-----------|------------|

Chorus:
G-----------|-----------|-----------|------------|
D-1--1-1----|-1--1-1--3-|-------/5p3|------------|
A---------1-|-----------|-1--1-1----|-1--1-1-----|
E-----------|----------1|-----------|------------|

G-----------|-----------|-----------|------------|
D-----------|----3-1-1h3|-----------|------------|
A------3----|-----3-----|-1--1-1----|-1--1-3-5---|
E-1--1------|-1---------|---------31|----------86|

G-----------|-----------|-----------|------------|
D-----------|-----------|-----------|------------|
A-6--6-6----|-6--6-6-8--|-10======\-|------------|
E---------6-|-----------|-----------|-3----------|

G-----------|-----------|-----------|------------|
D-----010---|-----------|-----3--1--|------------|
A-3--3---31-|-----------|-1—--------|-1—---------|
E-----------|-1---------|-----------|------------|
[ Tab from: http://www.guitartabs.cc/tabs/r/ronan_keating/if_tomorrow_never_comes_btab.html ]
Verse2:
G-----------|-----------|-----------|------------|
D-----------|-----------|-----------|------------|
A-3---3-3---|-----------|-6---------|------------|
E-----------|-1---1-1--/|-----6-6---|-6---6-6----|

G-----------|-----------|-----------|------------|
D-----------|-3--3-1-—3-|-------1---|------------|
A------3----|-----------|-1---1-----|-1--1-1--1h3|
E-1--1------|-----------|-----------|------------|

G-----------|-----------|-----------|------------|
D-----------|-----------|-------8=8-|------------|
A-3---3-3---|-----------|-6--------8|------------|
E-----------|-1---1-1--/|----6-6==--|-6---6-6----|

G-----------|-----------|-----------|------------|
D-----------|-----31—1h3|------1--3-|------------|
A------3----|----3------|-1--1------|-1--1-3-5---|
E-1--1------|-1---------|-----------|----------86|

Chorus:
G-----------|-----------|---------------|------------|
D------/10p8|-----------|---------------|-8--8-8--8--|
A-6-6-6-----|-6--6-6-6h8|------10p8-10p8|----------8-|
E-----------|-----------|6--6-6---------|-----------6|

G-----------|-----------|-----------|-------------|
D-----------|-3--3-1--3-|------3--3-|-------------|
A------3----|-----------|-1--1------|1--1--3--5---|
E-1--1------|-----------|-----------|-----------86|

G-----------|------------|------------|-------------|
D-----------|------------|------------|-------------|
A-6--6-6----|-6--6-6--8--|10--1010—10\|-----------1-|
E---------6-|------------|------------|-3--3-3--3--3|

G-----------|-----------|-----------|------------|
D-----010---|------3----|-----3--1--|------------|
A-3--3---31-|-----------|-1—-1------|-1—---------|
E-----------|-1--1---1--|-----------|------------|

Outro without bass
Comments