Romantics - What I Like About You Chords & Tabs

 

What I Like About You Chords & Tabs

Romantics Chords & Tabs

Version: 3 Type: Tab 0 ratings
1 star 2 stars 3 stars 4 stars 5 stars
comments

What I Like About You Tab

   
---------------------------------------
what i like about you - the romantics
---------------------------------------

Tabbed by: amanda
Email: amanda02157@yahoo.com
4-8-04

Tuning:

intro:
e|-9--9--9---9---7--7--------------------------------------------|
B|-9--9--10--10--7--7--------------------------------------------|
G|-9--9--9---9---7--7--------------------------------------------|
D|-9--9--9---9---7--7--7-7-7-7-7-7-------------------------------|
A|-7--7--7---7---5--5--7-7-7-7-7-7-------------------------------|
E|---------------------5-5-5-5-5-5-------------------------------|x4

chorus:
e|-------7-7-----------------------------------------------------|
B|-------7-7-----------------------------------------------------|
G|-1-1---7-7-----------------------------------------------------|
D|-2-2-7-7-7-7-7-7-7-7-7-----------------------------------------|
A|-2-2-7-5-5-7-7-7-7-7-7-----------------------------------------|
E|-----5-----5-5-5-5-5-5-----------------------------------------|x22

bridge:
e|---------------------------------------------------------------|
B|---------------------------------------------------------------|
G|-1-1---7-----------7-7-7-7-7-----------------------------------|
D|-2-2-7-7-5-5-5-5-5-7-7-7-7-7-5-5-5-5-5-7-----------------------|
A|-2-2-7-5-5-5-5-5-5-5-5-5-5-5-5-5-5-5-5-7-----------------------|
E|-----5---3-3-3-3-3-----------3-3-3-3-3-5-----------------------|


e|---------------------------------------------------------------|
B|---------------------------------------------------------------|
G|---7-7------9-9------------------------------------------------|
D|-7-7-7-7--9-9-9-9--9-9-9--9------------------------------------|
A|-7-5-5-7--9-7-7-9--9-9-9--9------------------------------------|
E|-5-----5--7-----7--7-7-7--7------------------------------------|
[ Tab from: http://www.guitartabs.cc/tabs/r/romantics/what_i_like_about_you_tab_ver_3.html ]
chorus:
e|-------7-7-----------------------------------------------------|
B|-0-0-----7-7---------------------------------------------------|
G|-1-1---7-7-----------------------------------------------------|
D|-2-2-7-7-7-7-7-7-7-7-7-7---------------------------------------|
A|-2-2-7-5-5-7-7-7-7-7-7-7---------------------------------------|
E|-0-0---5-----5-5-5-5-5-5---------------------------------------| x24

end with:
e|-9--9--9---9---7--7--------------------------------------------|
B|-9--9--10--10--7--7--------------------------------------------|
G|-9--9--9---9---7--7--------------------------------------------|
D|-9--9--9---9---7--7--7-7-7-7-7-7-------------------------------|
A|-7--7--7---7---5--5--7-7-7-7-7-7-------------------------------|
E|---------------------5-5-5-5-5-5-------------------------------|x6



| / slide up
| \ slide down
| h hammer-on
| p pull-off
| ~ vibrato
| + harmonic
| x Mute note


LYRICS:
hey, uh huh huh 
hey, uh huh huh 

what I like about you, you hold me tight 
tell me I'm the only one, wanna' come over tonight, yeah 

keep on whispering in my ear 
tell me all the things that I wanna hear, 'cause it's true 
[ that's what I like] 
that's what I like about you 
[that's what I like] 

what I like about you, you really know how to dance 
when you go up, down, jump around, think about true romance, yeah 

keep on whispering in my ear 
tell me all the things that I wanna hear, 'cause it's true 
[that's what I like about you] 
that's what I like about you 
[that's what I like about you] 
that's what I like about you 
[that's what I like about you] 
that's what I like about you 
[that's what I like] 

wahh! 

hey! 

what I like about you, you keep me warm at night 
never wanna' let you go, know you make me feel alright, yeah 

keep on whispering in my ear 
tell me all the things that I wanna hear, 'cause it's true 
[that's what I like about you] 
that's what I like about you 
[that's what I like about you] 
that's what I like about you 
[that's what I like about you] 
that's what I like about you 
[that's what I like about you] 

(that's what I like about you) 
[what I like] 
(that's what I like about you) 
[what I like] 
(that's what I like about you) 
[what I like] 
(that's what I like about you) 
[what I like about you] 

hey, uh huh huh, hey hey hey 
hey, uh huh huh, brrr 
hey, uh huh huh, hey
Comments