Romantics - What I Like About You Chords & Tabs

 

What I Like About You Chords & Tabs

Romantics Chords & Tabs

Version: 1 Type: Tab 0 ratings
1 star 2 stars 3 stars 4 stars 5 stars
comments

What I Like About You Tab

   
Artist: THE ROMANTICS 

Song: "What I Like About You" (1980) 



INTRO: (Play 4x)


  Esus4   E      A   D       D    D A  
 |-----------------|------------------|
 |-10-----9-----10-|-3-3-----3----3-2-|
 |-9------9------9-|-2-2-----2----2-2-| 
 |-9------9-----11-|-4-4-----4----4-2-|
 |-----------------|-0-0-----0----0-0-|
 |-----------------|------------------|


VERSE: (Play 14x)

[ Tab from: http://www.guitartabs.cc/tabs/r/romantics/what_i_like_about_you_tab.html ]
   E    E     D   D      D    D A 
 |-0----0-------|-----------------||
 |-0----0-----3-|-3-3----3----3-2-||
 |-1----1-----2-|-2-2----2----2-2-|| 
 |-2----2-----4-|-4-4----4----4-2-||
 |-2----2-----0-|-0-0----0----0-0-||
 |-0----0-------|-----------------||



Note: The INTRO on the previously submitted version of "What I Like About You" 
was wrong.  This is the correct way to play it.  I play the rest of the song as 
I've shown here.  The song speeds up after you play the VERSE about 14x, and 
also the strum pattern changes.  It's probably not the way they play it on the 
record, but it sounds good enough for now.  When you play the (D) chord, keep 
your index finger barred on those three strings on the second fret, your middle 
on the third fret (D), and your third finger on the fourth fret (F#).  That way, 
you don't have to move your fingers at all when you play the (A) chord.  



Submitted by: Michael Hatch
Email: watching_wheels@hotmail.com
Date: 6/30/01

Comments