Rollins Band - The End Of Something Chords & Tabs

 

The End Of Something Chords & Tabs

Rollins Band Chords & Tabs

Version: 1 Type: Bass Tab 0 ratings
1 star 2 stars 3 stars 4 stars 5 stars
comments

The End Of Something Bass Tab

   
The End Of Something
Off The CD: Come In And Burn
Artists: Rollins Band
Music & Lyrics By: Henry Rollins, Melvin Gibbs, Chris Haskett, and Sim Cain
Tabbed By: Jeremy Daw

/ = slide up
	If you have any corrections, please contact me and tell me about them.  IÕm 16 and I have never taken a bass lession in my life.

Melvin Gibbs uses distortion on many of the riffs
[ Tab from: http://www.guitartabs.cc/tabs/r/rollins_band/the_end_of_something_btab.html ]
riff1
A--------------------------------------------------------------------4-4-----------
E-5/8-5-5---5-6--0---5---5-6--3--5/8-5-5---5-6--0---5--------4-4-3-3-
B-----------------------------------------------------------------------------------

chorus
E-3-3-3-3-3-3-3-3-06-6-6-6-6-6-6-6-07-7-7-7-7-7-7-7-08-8-8-8-8-8-8-8-
B-------------------------------------------------------------------------------------------

E-03-3-3-3-3-3-3-3-06-6-6-6-6-6-6-6-07-7-7-7-7-7-7-7--4-4-------------
B-------------------------------------------------------------------------------4-4-3-3--

riff2
A-4-3------------------------------4-3---------0--0-0-0--0-0-0--0-0-
E------0-3--3-3--3-3-3--3-3-3------0-3-0----------------------------


Comments