Rollins Band - During A City Chords & Tabs

 

During A City Chords & Tabs

Rollins Band Chords & Tabs

Version: 2 Type: Bass Tab 0 ratings
1 star 2 stars 3 stars 4 stars 5 stars
comments

During A City Bass Tab

   
During A City
Off The CD: Come In And Burn
Artists: Rollins Band
Music & Lyrics By: Henry Rollins, Melvin Gibbs, Chris Haskett, and Sim Cain
Tabbed By: Jeremy Daw

/ = slide up
	If you have any corrections, please contact me and tell me about them.  IÕm 16 and I have never taken a bass lession in my life.

Melvin Gibbs uses distortion on many of the riffs

riff1
A---6--0-6-0-6h8-6--0-3-0-2-2-0-0-0------
E-----------------------------------------------3----
B-6----------------------------------------------4-
[ Tab from: http://www.guitartabs.cc/tabs/r/rollins_band/during_a_city_btab_ver_2.html ]
A---6--0-6-0-8--------0-3-0-2-2-0-0-0------
E-----------------------------------------------3----
B-6-----------------------------------------------4-

chorus
E-8-9-6---11----12-12---8-9-6---4-5-3-3-
B---------------12-------------------------------

riff2
A----------------------4-3-0--------0------------------------------------------0-
E-2-4-5--202----------------202-------3-5-8--202-------8-7-5--2020---
B---------------3------------------------------------------3------------------------

end riff
E-2-2-5-5-
B------------
Comments