Rolling Stones - You Got The Silver Chords & Tabs

 

You Got The Silver Chords & Tabs

Rolling Stones Chords & Tabs

Version: 1 Type: Tab 0 ratings
1 star 2 stars 3 stars 4 stars 5 stars
comments

You Got The Silver Tab

   
----------------------------------PLEASE NOTE---------------------------------#
#This file is the author's own work and represents their interpretation of the #
#song. You may only use this file for private study, scholarship, or research. #
#------------------------------------------------------------------------------##
From: v.d.drift@ams.chem.ruu.nl

You Got The Silver - Rolling Stones
>From the album 'Let It Bleed'
Written by M. Jagger and K. Richard

Tabbed by Koen van der Drift 

This is a transcription of the main acoustic guitar part. I wrote this because
the current version at `OLGA` - mistakenly called `You Got The Sliver` is far
from accurate and contains chords of which I, and probably the Stones also, have
never heard of.

Comments and suggestions are welcome.

Have fun,

- Koen.

---

Open D tuning
Capo at 3rd

Almost the whole song is based on two chords, an F and a Bb:

    F  Bb
D |-3---3-|
A |-3---5-|
F#|-3---4-|
D |-3---3-|
A |-3---5-|
D |-3---3-|

The capo is at the third fret, and you can alternate between these chords by
hammering-on and pulling-off the Bb chord. I give some examples how this is
done during the first verse, but it shouldn't be that difficiult to find out
what is played during the other verses. The Bb can also be played by sliding up
to the 8th position. The intro, the turnaround, the break and the outtro are
different, and they are tabbed as well.


Intro (play with slide):
                                                     
D  -------|--------3-3---------------|------------3-3-------------|
A  -------|--------------------------|------------------------5---|
D  -----8-|-(8)\-------------------8-|-(8)\-----------------4---4-|
F# -3-/8--|--8-\---------3----3-/8---|--8-\-------------3---------|
A  -------|--------------------------|----------------------------|
D  -------|--------------------------|----------------------------|
[ Tab from: http://www.guitartabs.cc/tabs/r/rolling_stones/you_got_the_silver_tab.html ]
 
D |-----------3------------------|----------3---------------------|
A |-------------3------------5---|------------3----------------3/-|
D |4p3-3-------------------4---4-|4p3-3------------------------3/-|
F#|-------3-------3---3----------|-------3------3---3----------3/-|
A |------------------------------|-----------------------------3/-|
D |------------------------------|--------------------------------|


D |------------------------------|-----------3--------------------|
A |-/8---------------------------|----------------------------3---|
D |-/8----------------------8-8--|-8\-3---------------------3---3-|
F#|-/8----------------------8-8--|-8\-----3------3----------------|
A |-/8----------------------8-8--|-8\-----------------------------|
D |------------------------------|--------------------------------|

 
D |-3----------------------------|-----------3--------------------|
A |-5------------------------5---|--------------------------------|
D |-4----------------------4---4-|4p3-3---------------------------|
F#|-3----------------------------|-------3--------3---------------|
A |-5----------------------------|--------------------------------|
D |------------------------------|--------------------------------|

 
D |-3----------------------------|-3------------------------------|
A |-5----------------------------|-5------------------------------|
D |-4----------------------------|-4------------------------------|
F#|-3----------------------------|-3------------------------------|
A |-5----------------------------|-5------------------------------|
D |------------------------------|--------------------------------|


Turnaround:

D |-------------------|-------------------------|
A |-------------------|-------------------------|
F#|-9--8---4--4--4----|-----4-----4--4p3--------|
D |-8--8---5--5--3----|-3---3-3---3--3---3------|
A |-----------------5-|-3h5---3h5----3----------|
D |-------------------|----------------------3--|


Break (play with slide):

D |------------------|----------------|----
A |------------------|----------------|----
F#|-10---X-10---/10--|-X-10--/10--/6--|-3--
D |-10---X-10---/10--|-X-10--/10--/6--|-3--
A |-10---X-10---/10--|-X-10--/10--/6--|-3--
D |-10---X-10---/10--|-X-10--/10--/6--|-3--


Outtro (play with slide):

D |--------------|--------------|--------------|---------|
A |--------------|--------------|--------------|---------|
F#|-10\--X--/10--|-10\--X--/10--|-10\--X--/10--|-/6---3--|
D |-10\--X--/10--|-10\--X--/10--|-10\--X--/10--|-/6---3--|
A |-10\--X--/10--|-10\--X--/10--|-10\--X--/10--|-/6---3--|
D |-10\--X--/10--|-10\--X--/10--|-10\--X--/10--|-/6---3--|


\: slide down
/: slide up
X: play without fretting.

Comments