Rolling Stones - Wanna Hold You Chords & Tabs

 

Wanna Hold You Chords & Tabs

Rolling Stones Chords & Tabs

Version: 2 Type: Tab 0 ratings
1 star 2 stars 3 stars 4 stars 5 stars
comments

Wanna Hold You Tab

         #----------------------------------PLEASE NOTE--------------------------------#
         #This file is the author\'s own work and represents their interpretation of the#
         #song. You may only use this file for private study, scholarship, or research.#
         #-----------------------------------------------------------------------------#

                                                    Note: This is The \"Bridges To Babylon\" Version
                                                    (Not The Original)  and I didn\'t post the
                                                    lyrics..I just posted those ones to help you
     \"Wanna Hold You\"                               out.
   By The Rolling Stones

                                                ? MICK ?
                                              ? STEVENSON ?

 (OPEN G TUNING)


          Intro: 4x

           E----5-----------------------------------------------------------------|
           B----3--   5-5-5--      7-7-8-8-7--------------------------------------|
           G-------   5-5-5--      7-7-7-7-7--------------------------------------|
           D----4--   5-5-5--      7-7-9-9-7--------------------------------------|
           A----4--   5-5-5--      7-7-7-7-7--------------------------------------|
           E----------------------------------------------------------------------|

          Chorus:

                  I Wan na    H o  l  d            I Got ta     H o l d
           E-------------------5----5--5------------------------------------------|
           B-0-0--0--0--0------3----3--3------0-0--0--0--0------7--7--7-----------|
           G-0-0--0--0--0---------------------0-0--0--0--0------7--7--7-----------|
           D-0-0--0--0--0------4----4--4------0-0--0--0--0------7--7--7-----------|
           A-0-0--0--0--0------4----4--4------0-0--0--0--0------7--7--7-----------|
           E----------------------------------------------------------------------|
[ Tab from: http://www.guitartabs.cc/tabs/r/rolling_stones/wanna_hold_you_tab_ver_2.html ]
             Y o  u  hold you ba by  close To Me
           E------------5--5--5--5------------------------------------------------|
           B-5--5--5----3--3--3--3-----7---7---7----7-7-7-------------------------|
           G-5--5--5-------------------7---7---7----7-7-7-------------------------|
           D-5--5--5----4--4--4--4-----7---7---7----7-7-7-------------------------|
           A-5--5--5----4--4--4--4-----7---7---7----7-7-7-------------------------|
           E----------------------------------------------------------------------|


          Verse:

                Well you might find it fun ny      That I got no mon ey

           E----------------------------------------------------------------------|
           B-1-1--1--1---1---1-----1----1--------0----0--0--0--0--0---0-----------|
           G-2-2--2--2---2---2-----2----2--------0----0--0--0--0--0---0-----------|
           D-2-2--2--2---2---2-----2----2------0-0----0--0--0--0--0---0-----------|
           A-----------------------------------0-0----0--0--0--0--0---0-----------|
           E----------------------------------------------------------------------|


                If you stick with me      Your gonna get some      love for free
           E-------------------------------5-----5----5----5----------------------|
           B-1-1--1--1---1---1-----1-------3-----3----3----3--------7----7----7---|
           G-2-2--2--2---2---2-----2--------------------------------7----7----7---|
           D-2-2--2--2---2---2-----2-------4-----4----4----4--------7----7----7---|
           A-------------------------------4-----4----4----4--------7----7----7---|
           E----------------------------------------------------------------------|


          Intro 4x
          Chorus
          Verse
          Chorus 2x
          Verse
          Chorus 2x
          Intro 4x
          Chorus 2x
          Verse
          Chorus 6x   ( The 3rd and 4th time does the lead part...I dont know the lead)
          Verse
Comments