Rolling Stones - Time Is On My Side Chords & Tabs

 

Time Is On My Side Chords & Tabs

Rolling Stones Chords & Tabs

Version: 1 Type: Tab 0 ratings
1 star 2 stars 3 stars 4 stars 5 stars
comments

Time Is On My Side Tab

tabbed by: Toby Kuipers
Artist:    Rolling Stones
song:      Time is on my Side (intro)

Eversince I started playing guitar and saw the movie 'fallen' I wanted to play
the intro of 'Time is on my side' from the Rolling stones. It wasn't on the
internet so here's a effort of my own. I think it sounds quit accurate, but if
you think you've got something better, please let me know: dikke_zooi@hotmail.com
note, this is only the intro.

[ Tab from: http://www.guitartabs.cc/tabs/r/rolling_stones/time_is_on_my_side_tab.html ]
E -16b17-17r16-16b-16p13----16---------------------------------------------------------
B -----------------------16-----14r13-------16/18-18-16/18-18-16/18-18-16/18-18-16/18--
G ------------------------------------16-----------------------------------------------
D ---------------------------------------16--------------------------------------------
A -------------------------------------------------------------------------------------
E -------------------------------------------------------------------------------------


E ---------------------------------------------------------
B -18-16/18-18-16\13-13-11---------------------------------
G -------------------------13-13----15b-15b16-16r15--------
D -------------------------------15------------------------
A ---------------------------------------------------------
E ---------------------------------------------------------
Comments