Rolling Stones - The Last Time Chords & Tabs

 

The Last Time Chords & Tabs

Rolling Stones Chords & Tabs

Version: 2 Type: Tab 0 ratings
1 star 2 stars 3 stars 4 stars 5 stars
comments

The Last Time Tab

   
Main Riff through verses
(lead guitar)
E----------------------------------|
B----------------------------------|   repeat through verses
G------------9---7---6-------------|
D-----7/9--9---9---7---------------|    E        D    A   is the rythm through
A----------------------------------|                                   verses
E----------------------------------|
[ Tab from: http://www.guitartabs.cc/tabs/r/rolling_stones/the_last_time_tab_ver_2.html ]
sample:
(verse)
E                      D             A
Well I Told you once, and I told you twice.
(Chorus)
A                                                              D
Well This could eb the last time, this could be the last time, maybe the
           A
last time, I don't know.

(lead guitar at Chorus)
Well this could be the...

E--------------------------------------------------------------------------|
B---------------------------3-----3-----3----------------------------------|
G---2-----2-----2-----2----2-----2-----2------2-----2----------------------|
D--2-----2-----2-----2----0---0-0---0-0---0--2-----2-----------------------|
A-0---0-0---0-0---0-0---0-------------------0---0-0---0--------------------|
E--------------------------------------------------------------------------|
Comments