Rolling Stones - Sympathy For The Devil Chords & Tabs

 

Sympathy For The Devil Chords & Tabs

Rolling Stones Chords & Tabs

Version: 4 Type: Tab 0 ratings
1 star 2 stars 3 stars 4 stars 5 stars
comments

Sympathy For The Devil Tab

"Sympathy For The Devil"   by The Rolling Stones

SOLO ONLY

transcribed & tabbed by Gerdo(Gutch220) siege17@hotmail.com

~ - vibrato
h - hammer on
p - pull off
. - play note than immediately stop it
b - bend note 1 full step(2 frets) unless otherwise stated
pb- prebend note 

-This solo is very "twangy" but its pretty straight forward,I tried to get the
timing as accurate as possible but its not perfect. As far as i know this is the
only version on the net.

  pb10                              pb10
|-(12)r-10--------------------------(12)r-10------------| 
|---------8h10p8----------------------------8h10p8------| 
|---------------9~~-------------------------------9~~---| 
|-------------------------------------------------------| 
|-------------------------------------------------------| 
|-------------------------------------------------------| 

              .                       .
|------------------------------------10b------------17b-17~~~~-----------------|
|-----8--10--10b--------------8--10----------------------------17b(20)-17~~~~~-|
|--9-----------------------9---------------------------------------------------|
|------------------------------------------------------------------------------|
|------------------------------------------------------------------------------|
|------------------------------------------------------------------------------|
[ Tab from: http://www.guitartabs.cc/tabs/r/rolling_stones/sympathy_for_the_devil_tab_ver_4.html ]
          .                               .
|-17p15--17--17p15--15-17----------15-17-17b-17-15h17-----|
|------17---------17-----1717---17--------------------17~-|
|---------------------------------------------------------|
|---------------------------------------------------------|
|---------------------------------------------------------|
|---------------------------------------------------------|

           .                                 .         .            .    .
----15-17-17b-17-15-17------------------------------------------------------|
-17--------------------17b(20)-17~~~~-------17--------17--------17-17---17--|
----------------------------------------------------------------------------|
----------------------------------------------------------------------------|
----------------------------------------------------------------------------|
----------------------------------------------------------------------------|

           .
|----15-17-17b-17-15h17-15~~~~---15-17p15-17brp15-17p15-17p15------------------|
|-17---------------------------17----------------------------17~~~~-17~~~~-17/-|
|------------------------------------------------------------------------------|
|------------------------------------------------------------------------------|
|------------------------------------------------------------------------------|
|------------------------------------------------------------------------------|
Comments