Rolling Stones - Start Me Up Chords & Tabs

 

Start Me Up Chords & Tabs

Rolling Stones Chords & Tabs

Version: 5 Type: Tab 0 ratings
1 star 2 stars 3 stars 4 stars 5 stars
comments

Start Me Up Tab

   
-------------------------------------------------------------------------------
			     Start Me Up - The Rolling Stones
-------------------------------------------------------------------------------
Tabbed by:3XILE
Email:james.mabrown@btopenworld.com

Tuning:Standard (Capo 3)Tab is in relation to the capo
[ Tab from: http://www.guitartabs.cc/tabs/r/rolling_stones/start_me_up_tab_ver_5.html ]
Verse
e|---------------------------------------------------------------------------|
B|----2---3-3---2--3-3-2-3-2-------------------------------------------------|
G|----2---2-2---2--2-2-2-2-2-------------------------------------------------|
D|----2---4-4---2--4-4-2-4-2-------2-0-2-0-2---------------------------------|
A|------------------------------------------3\2-0-0--------------------------|
E|------------------------------2/3-3-3-3-3-3\2-0-0--------------------------|

Chorus
e|----------2-----------2-----------2-------------------------------------------------2----|
B|----2-----3-x8--2-----3-x8--2-----3-x8--2-----5\4-2----2-----5\4-2----2----5\4-2----3-x8-|
G|----2-x8--2-----2-x8--2-----2-x8--2-----2-x5--5\4-2----2-x5--5\4-2----2-x5-5\4-2----2----|
D|----2-----------2-----------2-----------2-----5\4-2----2-----5\4-2----2----5\4-2---------|
A|-----------------------------------------------------------------------------------------|
E|-----------------------------------------------------------------------------------------|



| /  slide up
| \  slide down
| h  hammer-on
| p  pull-off
| ~  vibrato
| +  harmonic
| x  Mute note
===============================================================================
Comments