Rolling Stones - Satisfaction Chords & Tabs

 

Satisfaction Chords & Tabs

Rolling Stones Chords & Tabs

Version: 3 Type: Tab 0 ratings
1 star 2 stars 3 stars 4 stars 5 stars
comments

Satisfaction Tab

Title: Satisfaction
Artist: Rolling Stones

Tabbed: Jon Zegar (email: wkgnpimp15@hotmail.com)

This is the correct version! Listen to the song for the correct timing.

Riff 1
[ Tab from: http://www.guitartabs.cc/tabs/r/rolling_stones/satisfaction_tab_ver_3.html ]
|-------------------------------------|
|-------------------------------------|
|--4--4----4--6--7---7--7---6---4-----|
|-------------------------------------|
|--2--2----2--4--5---5--0---4---2-----|
|-------------------------------------|

(Repeat Riff 1)


Riff 2

|-------------------------------------|
|-------------------------------------|
|--4--4----4--6--7---7--7---6--6--4---|
|-------------------------------------|
|--2--2----2--4--5---5--0---4--4--2---|
|--0--0-------------------------------|

(Repeat Riff 2)
Comments