Rolling Stones - Ruby Tuesday Chords & Tabs

 

Ruby Tuesday Chords & Tabs

Rolling Stones Chords & Tabs

Version: 2 Type: Tab 0 ratings
1 star 2 stars 3 stars 4 stars 5 stars
comments

Ruby Tuesday Tab

   
			 ---Ruby Tuesday - by Rolling Stones---			

In 4/4 time per measure.                  
	
-----------------------------------------------------------------------
      A - part
-----------------------------------------------------------------------
      Am      Am/G      F        G      C                C                
E -----------------|-----------------|---------0-------|---------0----
B -----1-------1---|-----------------|-------1---1-----|-------1---1--
G ---2---2---2---2-|-----2-------0---|-----0-------0---|-----0-------0
D -----------------|---3---3---0---0-|---2-----------2-|---2----------
A -0---------------|-----------------|-3---------------|-3------------
E ---------3-------|-1-------3-------|-----------------|--------------
   
       Am      Am/G        F                 G               G             
E ---|-----------------|---------1-------|---------3-------|----------
B ---|-----1-------1---|-------1---1-----|-------0---0-----|-----1----
G ---|---2---2---2---2-|-----2-------2---|-----0-------0---|---2---2--
D -2-|-----------------|---3-----------3-|---0-----------0-|----------
A ---|-0---------------|-----------------|-----------------|-0--------
E ---|---------3-------|-1---------------|-3---------------|---------2

            G                   Am     Am/F#    G                 C
E -------|---------3-------|-----------------|---------3-------|------
B ---1---|-------0---0-----|-----1-------1---|-------0---0-----|------
G -2---2-|-----0-------0---|---2---2---2---2-|-----0-------0---|-----0
D -------|---0-----------0-|-----------------|---0-----------0-|---2--
A -------|-----------------|-0---------------|-----------------|-3----
E -------|-3---------------|---------2-------|-3---------------|------
[ Tab from: http://www.guitartabs.cc/tabs/r/rolling_stones/ruby_tuesday_tab_ver_2.html ]
                C                 G                  G
E ---0-------|---------0-------|---------3-------|---------3-------|
B -1---1-----|-------1---1-----|-------0---0-----|-------0---0-----|
G -------0---|-----0-------0---|-----0-------0---|-----0-------0---|
D ---------2-|---2-----------2-|---0-----------0-|---0-----------0-|
A -----------|-3---------------|-----------------|-----------------|
E -----------|-----------------|-3---------------|-3---------------|


-----------------------------------------------------------------------	
	B - part
-----------------------------------------------------------------------
	C    G   G    C
	Good bye Ruby Tuesday

	C         G      G       C
	Who could hang a name on you

	C	 G	     B     F
	When you change	with every new day	

	G               F        G.
	Still i'm gonna miss you


Crd. form in measure's: [|C  G|G  C|C  G|G  C|C  G|B  F|G  F|G	 |]

------------------------------------------------------------------------
	C - part(Fade out)	
------------------------------------------------------------------------
		


     Am      Am/G      F        G      C  ->Fade out     C             End 
E -----------------|-----------------|---------0-------|------0------||
B -----1-------1---|-----------------|-------1---1-----|------1------||
G ---2---2---2---2-|-----2-------0---|-----0-------0---|------0------||
D -----------------|---3---3---0---0-|---2-----------2-|------2------||
A -0---------------|-----------------|-3---------------|------3------||
E ---------3-------|-1-------3-------|-----------------|------0------||
   
------------------------------------------------------------------------

Form of song: 
|A - part|B - part|A - part|B - part|A - part|B - part|B - part|
|C - part(Fade out)|End



				Tab by Marko Ignjatovic 
Comments