Rolling Stones - Rough Justice Chords & Tabs

 

Rough Justice Chords & Tabs

Rolling Stones Chords & Tabs

Version: 1 Type: Bass Tab 0 ratings
1 star 2 stars 3 stars 4 stars 5 stars
comments

Rough Justice Bass Tab

   
Artist: Rolling Stones
Song: Rough Justice
Album: A Bigger Bang (2005)
Tuning: Standard E,A,D,G

Intro:
G-----------5h7-5---------------------|
D-------------------7-----------------|
A--1/5------------------5~------------|
E-------------------------------------|

G-------------------------------------|
D-------------------------------------|
A--5555553h555553h555553h555553h55555-|
E-------------------------------------|

Verse:
G--------------------------------------|
D--------------------------------------|
A--3h55555-X8--------------------------|
E----------------------/10-------------|
[ Tab from: http://www.guitartabs.cc/tabs/r/rolling_stones/rough_justice_btab.html ]
Chorus:
G-------------------------------------|
D-------------------------------------|
A---------3h5~5p3h5-------------------|
E-3-3-3-------------------------------|

Verse 2:

G--------------------------------------|
D--------------------------------------|
A--3h55555-X8--------------------------|
E----------------------/10-------------|


Chorus:
G-------------------------------------|
D-------------------------------------|
A---------3h5~5p3h5-------------------| X15
E-3-3-3-------------------------------|

Verse 3:

G--------------------------------------|
D--------------------------------------|
A--3h55555-X8--------------------------|
E----------------------/10-------------|

Chorus:

G-------------------------------------|
D-------------------------------------|
A---------3h5~5p3h5-------------------| take it to the end
E-3-3-3-------------------------------|
Comments