Rolling Stones - Paint It Black Chords & Tabs

 

Paint It Black Chords & Tabs

Rolling Stones Chords & Tabs

Version: 8 Type: Tab 0 ratings
1 star 2 stars 3 stars 4 stars 5 stars
comments

Paint It Black Tab

   
LEDGEND:
p=pull-off
h=hammer-on
/=slide
^=strum up
~=vibrato

INTRO:
e|------0---0---0----0---0---0---0---0---0---0---0-----------------|
B|----5---7---8---10---8---7---5---5---4---5---7----2h4h5/7-5p4p2-4|
G|-----------------------------------------------------------------|
D|-----------------------------------------------------------------|
A|-----------------------------------------------------------------|
E|-----------------------------------------------------------------|
   ^          ^
e|-0----------0----------------------------------------------------|
B|-0----------0----------------------------------------------------|
G|-0----------0----------------------------------------------------|
D|-2----------2----------------------------------------------------|
A|-2----------2----------------------------------------------------|
E|-0-0-0-0--0-0----------------------------------------------------|

VERSE
e|-----------------------------------------------------------------|
B|------5-7-8-10-8-7-5-5-4-5-7-4~~~-----2x-------------------------|
G|-----------------------------------------------------------------|
D|-----------------------------------------------------------------|
A|-----------------------------------------------------------------|
E|-----------------------------------------------------------------|
                                                   | FILL IN |             
e|--------------------------------------------------0--------------|
B|----------------------------------------------------3p2p0-2------|
G|-9---7-7---------7-7-7-------------------------------------------|
D|-9---7-7---5-5---7-7-7---9-9----7-7-7--9-------------------------|
A|-7---5-5---5-5---5-5-5---9-9----7-7-7--9-------------------------|
E|-----------3-3-----------7-7----5-5-5--7-------------------------|

e|-----------------------------------------------------------------|
B|-----------------------------------------------------------------|
G|-9---7-7---------7-7-7-------------------------------------------|
D|-9---7-7---5-5---7-7-7---9-9----7-7-7/111111111111---------------|
A|-7---5-5---5-5---5-5-5---9-9----7-7-7/111111111111---------------|
E|-----------3-3-----------7-7----5-5-5/9-9-9-9-9-9----------------|

e|-----------------------------------------------------------------|
B|------5-7-8-10-8-7-5-5-4-5-7-4~~~-----2x-------------------------|
G|-----------------------------------------------------------------|
D|-----------------------------------------------------------------|
A|-----------------------------------------------------------------|
E|-----------------------------------------------------------------|

                                                   | FILL IN |             
e|--------------------------------------------------0--------------|
B|----------------------------------------------------3p2p0-2------|
G|-9---7-7---------7-7-7-------------------------------------------|
D|-9---7-7---5-5---7-7-7---9-9----7-7-7--9-------------------------|
A|-7---5-5---5-5---5-5-5---9-9----7-7-7--9-------------------------|
E|-----------3-3-----------7-7----5-5-5--7-------------------------|


e|-----------------------------------------------------------------|
B|-----------------------------------------------------------------|
G|-9---7-7---------7-7-7-------------------------------------------|
D|-9---7-7---5-5---7-7-7---9-9----7-7-7/111111111111---------------|
A|-7---5-5---5-5---5-5-5---9-9----7-7-7/111111111111---------------|
E|-----------3-3-----------7-7----5-5-5/9-9-9-9-9-9----------------|
[ Tab from: http://www.guitartabs.cc/tabs/r/rolling_stones/paint_it_black_tab_ver_8.html ]
e|-----------------------------------------------------------------|
B|------5-7-8-10-8-7-5-5-4-5-7-4~~~-----2x-------------------------|
G|-----------------------------------------------------------------|
D|-----------------------------------------------------------------|
A|-----------------------------------------------------------------|
E|-----------------------------------------------------------------|
                                                   | FILL IN |             
e|--------------------------------------------------0--------------|
B|----------------------------------------------------3p2p0-2------|
G|-9---7-7---------7-7-7-------------------------------------------|
D|-9---7-7---5-5---7-7-7---9-9----7-7-7--9-------------------------|
A|-7---5-5---5-5---5-5-5---9-9----7-7-7--9-------------------------|
E|-----------3-3-----------7-7----5-5-5--7-------------------------|


e|-----------------------------------------------------------------|
B|-----------------------------------------------------------------|
G|-9---7-7---------7-7-7-------------------------------------------|
D|-9---7-7---5-5---7-7-7---9-9----7-7-7/111111111111---------------|
A|-7---5-5---5-5---5-5-5---9-9----7-7-7/111111111111---------------|
E|-----------3-3-----------7-7----5-5-5/9-9-9-9-9-9----------------|

e|-----------------------------------------------------------------|
B|------5-7-8-10-8-7-5-5-4-5-7-4~~~-----2x-------------------------|
G|-----------------------------------------------------------------|
D|-----------------------------------------------------------------|
A|-----------------------------------------------------------------|
E|-----------------------------------------------------------------|

                                                   | FILL IN |             
e|--------------------------------------------------0--------------|
B|----------------------------------------------------3p2p0-2------|
G|-9---7-7---------7-7-7-------------------------------------------|
D|-9---7-7---5-5---7-7-7---9-9----7-7-7--9-------------------------|
A|-7---5-5---5-5---5-5-5---9-9----7-7-7--9-------------------------|
E|-----------3-3-----------7-7----5-5-5--7-------------------------|


e|-----------------------------------------------------------------|
B|-----------------------------------------------------------------|
G|-9---7-7---------7-7-7-------------------------------------------|
D|-9---7-7---5-5---7-7-7---9-9----7-7-7/111111111111---------------|
A|-7---5-5---5-5---5-5-5---9-9----7-7-7/111111111111---------------|
E|-----------3-3-----------7-7----5-5-5/9-9-9-9-9-9----------------|


e|-----------------------------------------------------------------|
B|------5-7-8-10-8-7-5-5-4-5-7-4~~~-----2x-------------------------|
G|-----------------------------------------------------------------|
D|-----------------------------------------------------------------|
A|-----------------------------------------------------------------|
E|-----------------------------------------------------------------|

                                                   | FILL IN |             
e|--------------------------------------------------0--------------|
B|----------------------------------------------------3p2p0-2------|
G|-9---7-7---------7-7-7-------------------------------------------|
D|-9---7-7---5-5---7-7-7---9-9----7-7-7--9-------------------------|
A|-7---5-5---5-5---5-5-5---9-9----7-7-7--9-------------------------|
E|-----------3-3-----------7-7----5-5-5--7-------------------------|


e|-----------------------------------------------------------------|
B|-----------------------------------------------------------------|
G|-9---7-7---------7-7-7-------------------------------------------|
D|-9---7-7---5-5---7-7-7---9-9----7-7-7/111111111111---------------|
A|-7---5-5---5-5---5-5-5---9-9----7-7-7/111111111111---------------|
E|-----------3-3-----------7-7----5-5-5/9-9-9-9-9-9----------------|



UNDER THIS RIFF YOU CAN PLAY THE VERSE
e|-------------------------------------------------|
B|-12-13-12-10-12-10-9-10-12-10 9-10-9-7-9-10-9----| 
G|-------------------------------------------------|
D|-------------------------------------------------|
A|-------------------------------------------------|
E|-------------------------------------------------|
FADE OUT FROM HERE
Comments