Rolling Stones - Paint It Black Chords & Tabs

 

Paint It Black Chords & Tabs

Rolling Stones Chords & Tabs

Version: 7 Type: Tab 0 ratings
1 star 2 stars 3 stars 4 stars 5 stars
comments

Paint It Black Tab

   
-------------------------------------------------------------------------------
			     Paint it Black - The Rolling Stones
-------------------------------------------------------------------------------
Tabbed by: Garrett
Email: Garrett52789@aol.com

Tuning: Standard

Intro
e|-----------------------------------------|--------------------------------------|
B|---5-7-8-10-8-7-5-5-4-5-7-5-4--|---4h-5h-7---7h-5h-4----------------------------|
G|-----------------------------------------|--------------------------------------|
D|-----------------------------------------|--------------------------------------|
A|-----------------------------------------|--------------------------------------|
E|-----------------------------------------|--------------------------------------|

Drum thing

e|-0----------0----------0----------------------------------------------------------|
B|-0----------0----------0----------------------------------------------------------|
G|-0----------0----------0----------------------------------------------------------|
D|-2----------2----------2----------------------------------------------------------|
A|-2----------2----------2----------------------------------------------------------|
E|-0-0-0-0--0-0-0-0--0-0-0-0--------------------------------------------------------|

For the verse, do the intro but do this instead of the hammering at the end of the intro
[ Tab from: http://www.guitartabs.cc/tabs/r/rolling_stones/paint_it_black_tab_ver_7.html ]
e|-----------------------------------------------------------------------------|
B|-2h-4/5---5-4-2--------------------------------------------------------------|
G|-----------------------------------------------------------------------------|
D|-----------------------------------------------------------------------------|
A|-----------------------------------------------------------------------------|
E|-----------------------------------------------------------------------------|

Chorus
This is more of the rythm part, not the lead.  The lead is built of the intro. Play this 
few times and listen for it, you'll hear it in the song.

e|-----------------------------------------------------------------------------|
B|-----------------------------------------------------------------------------|
G|-9-9---7-7-------------------------------------------------------------------|
D|-9-9---7-7---5-5---7-7---9-9---7---5---9-9-9-9-------------------------------|  2 times
A|-7-7---5-5---5-5---7-7---9-9---7---5---9-9-9-9-------------------------------|
E|----------------3-3---5-5---7-7---5---3---7-7-7-7----------------------------|

Toward the end they start humming, the repetive chord being played is the same chord 
is played after the drum part at the begining. The lead guitar plays something like this, 
to is built of the intro, if you wanna do your own thing.

e|-----------------------------------------------|
B|-12-13-12-10-12-10-9-10-12-10 9-10-9-7-9-10-9--| then go back to verse riff
G|-----------------------------------------------|
D|-----------------------------------------------|
A|-----------------------------------------------|
E|-----------------------------------------------|

The End

| /  slide up
| \  slide down
| h  hammer-on
| p  pull-off
| ~  vibrato
| +  harmonic
| x  Mute note
===============================================================================
Comments