Rolling Stones - Paint It Black Chords & Tabs

 

Paint It Black Chords & Tabs

Rolling Stones Chords & Tabs

Version: 6 Type: Tab 0 ratings
1 star 2 stars 3 stars 4 stars 5 stars
comments

Paint It Black Tab

e--|--------0-----1-----3-----1-----0----|-----------------------0---------|-
B-4|--3--------------------------------3-|-3-----2-----3/5-0h2h3---3p2p0-2-|-
G--|-----------------------------------2-|---------------------------------|-
D-4|-----0-----0-----0-----0-----0-------|----0-----0----------------------|-
A--|-------------------------------------|---------------------------------|-
E--|-------------------------------------|---------------------------------|-

e-|------0-------------|--0-------------|-
B-|------3-------------|--3-------------|-
G-|------0-------------|--2-------------|-
D-|------0-------------|--0-------------|-
A-|------0-------------|--0-------------|-
E-|--------------------|----------------|-

e-|--------------------|----------------|-
B-|------3-3--3--3--3--|----3--3--3--3--|-
G-|------2-2--2--2--2--|----2--2--2--2--|-
D-|------0-0--0--0--0--|----0--0--0--0--|-
A-|------0-0--0--0--0--|----0--0--0--0--|-
E-|--------------------|----------------|-
[ Tab from: http://www.guitartabs.cc/tabs/r/rolling_stones/paint_it_black_tab_ver_6.html ]
e-|----------0---1---|-3---1---0-----|--------------|---------------|-
B-|------3-----------|-------------3-|-3--2---3-/-5-|-3---2-0h2-(2)-|-
G-|------------------|---------------|--------------|---------------|-
D-|--------0---0---0-|---0---0---0---|--------------|---------------|-
A-|------------------|---------------|--------------|---------------|-
E-|------------------|---------------|--------------|---------------|-

e-|------------------|---------------|--------------|---------------|-
B-|----3--3--3--3--3-|-3---3---3---3-|--------------|---------------|-
G-|----2--2--2--2--2-|-2---2---2---2-|-(2)(2)(2)(2)-|-(2)(2)(2)(2)--|-
D-|----0--0--0--0--0-|-0---0---0---0-|--2--2--3--2--|--2--2--3--2---|-
A-|----0--0--0--0--0-|-0---0---0---0-|--0--0--0--0--|--0--0--0--0---|-
E-|------------------|---------------|--------------|---------------|-

e-|------------------|-full----------|-full---------|-full----------|-
B-|--------3--5--6---|6^(6)-6--5--3--|3^(33)2-3--5--|3^(33)2--------|-
G-|------------------|---------------|--------------|---------------|-
D-|------------------|---------------|--------------|---------------|-
A-|------------------|---------------|--------------|---------------|-
E-|------------------|---------------|--------------|---------------|-

e-|-1---0---1-|-                         -|-3---5--|-           -|--0------3----|-
B-|-3---1---1-|-                         -|-0---2--|-           -|--3------3----|-
G-|-2---0---2-|-                         -|-0---2--|-           -|--2------2----|-
D-|-0---2---3-|-                         -|-0---2--|-           -|--0------0----|-
A-|-x---3---3-|-                         -|-2---0--|-           -|--x------x----|-
E-|-x---x---1-|-                         -|-3---x--|-           -|--x------x----|-
Comments