Rolling Stones - No Expectations Chords & Tabs

 

No Expectations Chords & Tabs

Rolling Stones Chords & Tabs

Version: 4 Type: Tab 0 ratings
1 star 2 stars 3 stars 4 stars 5 stars
comments

No Expectations Tab

   
Song: NO EXPECTATIONS
Artist: Rolling Stones
Album: Beggars' Banquet and The Rolling Stones Rock 'n Roll Circus

Slide Guitar: Electric with a slide bar or bottleneck; Plays at Intro, verses, and solo
Rhythm Guitar: Acoustic; Plays Chords 
/ Means to slide (--10/12--). Another way to show a slide is with an s (--10s12--)

Capo on the second fret

Lead played with slide bar:
[ Tab from: http://www.guitartabs.cc/tabs/r/rolling_stones/no_expectations_tab_ver_4.html ]
  C            G        C            G 
E ------3--------------|------3--------------|
B --3/5---5-5-------3--|--3/5---5-5-------3--| 
G --------------3/4----|--------------3/4----|        
D ---------------------|---------------------|        
A ---------------------|---------------------|        
E ---------------------|---------------------|
   
  C             G            F       C      G
E -------3-----------5--|--------------------------------|
B --3/5----5-5--5/7-----|--9/10---10/8---10/12---10/12---|
G ----------------------|--9/10---10/8---10/12---10/12---|
D ----------------------|--9/10---10/8---10/12---10/12---|
A ----------------------|--------------------------------|
E ----------------------|--------------------------------|

 C               G 
Take me to the station
    C            G 
And put me on a train
     C            G 
I've got no expectations
    F            C     G 
To pass through here again

C            G 
Once I was a rich man
C            G 
Now I am so poor
     C             G 
But never in my sweet short life
        F         C    G 
Have I felt like this before

      C               G 
Your heart is like a diamond
     C                    G 
You throw your pearls at swine
     C               G 
And as I watch you leaving me
    F         C      G
You pack my piece of mind

Instrumental (Repeat Intro)      
    
Our love was like the water
That splashes on a stone
Our love is like our music
It's here, and then it's gone

So take me to the airport
And put me on a plane
I got no expectations
To pass through here again

End with the last note of the intro

/ Means to slide (--10/12--). Another way to show a slide is with an s (--10s12--)
Comments