Rolling Stones - Moonlight Mile Chords & Tabs

 

Moonlight Mile Chords & Tabs

Rolling Stones Chords & Tabs

Version: 1 Type: Tab 1 rating
1 star 2 stars 3 stars 4 stars 5 stars
comments

Moonlight Mile Tab

Moonlight Mile       


Jagger/Richards
Mick Open G tuning



                                                            
D||-----------------------|--------------------------------|
B||-----------------------|--------------------------------|
G||-----------------------|----------------------------12--|
D||------------5-7-5-7-5--|--14----12------12h14-12h14-----|
G||------------0h0h0-0-0--|--0-----0-------0-----0-----0---|
D||-----------------------|--------------------------------|


                                                                   
---------------------------------------|--------------------------|
---------------------------------------|--------------------------|
--14----12-----------------------------|--------------------------|
--0-----0---14----12h14-12h14-12h14h12-|--7----9------9--7h9h7-7--|
------------0-----0-----0-----0--------|--0----0------0--0-----0--|
---------------------------------------|--------------------------|


                                                             
--------0----0--0----------|--------------------------------|
--------0----0--0----------|--------------------------------|
--------0----0--0----------|--------------------------------|
--2/-5--5----5--5--5h7-5h7-|--14----12------12h14-12h14-12--|
--0-----0----0--0--0---0---|--0-----0-------0-----0-----0---|
---------------------------|--------------------------------|


                                                                  
-------------------------------------|---------------------------|
-------------------------------------|---------------------------|
--12h14---12-------------------------|---------------------------|
--0-------0---14----12h14-12h14-12/9-|--7h---9--9--7h9-7h9-9--7/-|
--------------0-----0-----0-----0----|--0----0--0--0-0-0-0-0--0--|
-------------------------------------|---------------------------|


                                                          
---------0--0-----------|--------------------------------|
---------0--0-----------|--------------------------------|
---------0--0-----------|--------------------------------|
--2/5--5-5--5------5----|--14----12------12h14-12h14-12--|
--0-0--0-----------0----|--0-----0-------0-----0-----0---|
------------------------|--------------------------------|


                                                                
-------------------------------------|-------------------------|
-------------------------------------|-------------------------|
--12-14---12-------------------------|-------------------------|
--0-------0---14----12h14-12h14-12/9-|--7h---9---9-10h-9----7--|
--------------0-----0-----0-----0----|--0----0---0-0---0----0--|
-------------------------------------|-------------------------|


                                                              
---------0--0---------------|--------------------------------|
---------0--0---------------|--------------------------------|
---------0--0---------------|--------------------------------|
--2/5--5-5--5----5h7-5h7-0--|--14----12------12h14-12h14-14--|
--0-0--0---------0---0---0--|--0-----0-------0-----0-----0---|
----------------------------|--------------------------------|


                                                                  
-------------------------------------|---------------------------|
-------------------------------------|---------------------------|
--12h14---12-------------------------|---------------------------|
--0-------0---14----12h14-12h14-12/9-|--7h---9--7h9-7h9-7h-9h7/--|
--------------0-----0-----0-----0----|--0----0--0---0---0----0---|
-------------------------------------|---------------------------|


                                                                          
------------------------|--5----5----5----5--5--|--0----0----------------|
---------0--0------0----|--5----5----5----5--5--|--0----0----1-0-1--0----|
-------0-0--0------0----|--5----5----5----5--5--|--0----0----0-0-0--0----|
--2/5--5-5--5------0----|--5----5----5----5--5--|--0----0----2-0-2--0----|
--0-0--0-0--0------0----|--5----5----5----5--5--|--0----0----0-0-0--0----|
------------------------|-----------------------|------------------------|


                                                                            
--------------------------|-------------------------|--5----5----5----5----|
--2-2-2-0----0--5----5----|--0----0---0h1h0h1h-0----|--5----5----5----5----|
--2-2-2-0----0--5----5----|--0----0---0-0-0-0--0----|--5----5----5----5----|
--2-2-2-0-0--0--5----5----|--0----0---0h2h0h2h-0----|--5----5----5----5----|
--2-2-2-0-0-----5----5----|--0----0-----0-0-0--0----|--5----5----5----5----|
--------------------------|-------------------------|----------------------|


                                                                 
--0----0----------------|----------------|--5----5----5----5----|
--0----0----1-0-1--0----|--2-2-2------0--|--5----5----5----5----|
--0----0----0-0-0--0----|--2-2-2---0--0--|--5----5----5----5----|
--0----0----2-0-2--0----|--2-2-2-0-0--0--|--5----5----5----5----|
--0----0----0-0-0--0----|--2-2-2-0-------|--5----5----5----5----|
------------------------|----------------|----------------------|


                                                                    
--0----0----------------------|------------------------------------|
--0----0----------------------|------------------------------------|
--0----0----------------------|--12h14---12------------------------|
--0----0------12h14-12h14-12--|--0-------0---14----12h14-12h14-12--|
--0----0------0-----0-----0---|--------------0-----0-----0-----0---|
------------------------------|------------------------------------|


                                                      
---------------------------|-------------------------|
---------------------------|--------0---0-0--0--0----|
---------------------------|--------0---0-0--0--0----|
--7h---9--7h9-7h9-7h-9h7/--|--2/5---5---5-5--5--0----|
--0-------0---0---0----0---|--0-----0---0-0--0--0----|
---------------------------|-------------------------|


                                                                      
--------------------------------|------------------------------------|
--------------------------------|------------------------------------|
--------------------------------|--12h14---12------------------------|
--14----12------12h14-12h14-14--|--0-------0---14----12h14-12h14-12/-|
--0-----0-------0-----0-----0---|--------------0-----0-----0-----0---|
--------------------------------|------------------------------------|


                                                        
--------------------------|---------0--0---------------|
--------------------------|---------0--0---------------|
--------------------------|---------0--0---------------|
--7h---9---9-10h-9--9--7--|--2/5--5-5--5----5h7-5h7-0--|
--0----0---0-0---0--0-----|--0----0-0--0----0---0---0--|
--------------------------|----------------------------|

[ Tab from: http://www.guitartabs.cc/tabs/r/rolling_stones/moonlight_mile_tab.html ]
                                                                      
--------------------------------|------------------------------------|
--------------------------------|------------------------------------|
--------------------------------|--12h14---12------------------------|
--14----12------12h14-12h14-14--|--0-------0---14----12h14-12h14-12/-|
--0-----0-------0-----0-----0---|--------------0-----0-----0-----0---|
--------------------------------|------------------------------------|


                                                                          
------------------------|-------------------0----|--5----5----5----5--5--|
------------------------|---------0--0------0----|--5----5----5----5--5--|
------------------------|-------0-0--0------0----|--5----5----5----5--5--|
--7h---9----10h-9----7--|--2/5--5-5--5------0----|--5----5----5----5--5--|
--0----0----0---0----0--|--0-0--0-0--0------0----|--5----5----5----5--5--|
------------------------|------------------------|-----------------------|


                                                                              
--0----0----------------|----------------5----5----|--0----0---0-0-0-0--0----|
--0----0----1-0-1--0----|--2-2-2---0--0--5----5----|--0----0---0-1-0-1--0----|
--0----0----0-0-0--0----|--2-2-2---0--0--5----5----|--0----0---0-0-0-0--0----|
--0----0----2-0-2--0----|--2-2-2-0-0--0--5----5----|--0----0---0-2-0-2--0----|
--0----0----0-0-0--0----|--2-2-2-0-0--0--5----5----|--0----0---0-0-0-0--0----|
------------------------|--------------------------|-------------------------|


                                                               
--5----5----5----5----|--0----0----0----0----|----------------|
--5----5----5----5----|--0----0----0----0----|--2-2-2-0-0--0--|
--5----5----5----5----|--0----0----0----0----|--2-2-2-0-0--0--|
--5----5----5----5----|--0----0----0----0----|--2-2-2-0-0--0--|
--5----5----5----5----|--0----0----0---------|--2-2-2-0-0--0--|
----------------------|----------------------|----------------|


                                                                        
--5----5----5----5----|--0--------------------|------------------------|
--5----5----5----5----|--0----0---------------|--0----0--------1-0-1-0-|
--5----5----5----5----|--0----0---------------|--0----0--------0-0-0-0-|
--5----5----5----5----|--0----0------5h-7h-5--|--5----5--------2-0-2-0-|
--5----5----5----5----|--0----0------0--0--0--|--0----0--------0-0-0-0-|
----------------------|-----------------------|------------------------|


                                                                        
---------------------|--------------------------|--0----0----0----0----|
--1----0--------0----|--0----0----0--0--0-0-0-0-|--0----0----0----0----|
--0----0--------0----|--0----0----0--0--0-0-0-0-|--0----0----0----0----|
--2----0--------0----|--0----0----0--0--0-0-0-0-|--0----0----0----0----|
--0----0--------0----|--0----0----0--0--0-0-0-0-|--0----0----0----0----|
---------------------|--------------------------|----------------------|


                                                                        
-----------------------|--0----0--------------|------------------------|
--0----0----0----0--0--|--0----0--------------|-----------------0-1--0-|
--0----0----0----0--0--|--0----0----0----0----|--0----0----0----0-0--0-|
--0----0----0----0--0--|------------0----0----|--0----0----0----0-0--0-|
--0----0----0----0--0--|------------0----0----|--0----0----0----0-0--0-|
-----------------------|----------------------|------------------------|


                                                                      
--0----0----0----0----|-----------------------|--0----0----0----0----|
--0----0----0----0----|--0----0----0----0--0--|--0----0----0----0----|
--0----0----0----0----|--0----0----0----0--0--|--0----0----0----0----|
--0----0----0----0----|--0----0----0----0--0--|--0----0----0----0----|
----------------------|--0----0----0----0--0--|--0----0----0----0----|
----------------------|-----------------------|----------------------|


                                                                       
------------------------|----------------------|----------------------|
--0----0----0----0-1--0-|--0----0----0----0----|--0----0----0----0----|
--0----0----0----0-0--0-|--0----0----0----0----|--0----0----0----0----|
--0----0----0----0-0--0-|--0----0----0----0----|--0----0----0----0----|
--0----0----0----0-0--0-|--0----0----0----0----|--0----0----0----0----|
------------------------|----------------------|----------------------|


                                                                            
--0-0-----------0--0--0--|--0-0-----------0--0--0--|--0----0------0--0--0--|
--1-0---0-0-----1--1--1--|--0-0---0-0-----1--1--1--|--1----0------1--1--0--|
--0-0---0-0-----0--0--0--|--0-0---0-0-----0--0--0--|--0----0------0--0--0--|
--0-0---0-0-----0--0--0--|--0-0---0-0-----0--0--0--|--0-----------0--0--0--|
--------0-0-----0--0--0--|--------0-0-----0--0--0--|-----------------------|
-------------------------|-------------------------|-----------------------|


                                                                        
--0----0------0--0--0--|--0----0------0--0--0--|--0----0------0--0--0--|
--1----0------1--1--1--|--1----0------1--1--0--|--1----0------1--1--1--|
--0----0------0--0--0--|--0----0------0--0--0--|--0----0------0--0--0--|
--0----0------0--0--0--|--0----0------0--0--0--|--0----0------0--0--0--|
-----------------------|-----------------------|-----------------------|
-----------------------|-----------------------|-----------------------|


                                                                       
--0----0------0--0--0--|--0----0------0--0--0--|--7----7----7----7----|
--1----0------1--1--1--|--1----0------1--1--1--|--7----7----7----7----|
--0----0------0--0--0--|--0----0------0--0--0--|--7----7----7----7----|
--0----0------0--0--0--|--0----0------0--0--0--|--7----7----7----7----|
-----------------------|-----------------------|--7----7----7----7----|
-----------------------|-----------------------|----------------------|


                                                               
--5----5----5----5----|----------------|--5----5----5----5----|
--5----5----5----5----|--2-2-2-0-0--0--|--5----5----5----5----|
--5----5----5----5----|--2-2-2-0-0--0--|--5----5----5----5----|
--5----5----5----5----|--2-2-2-0-0--0--|--5----5----5----5----|
--5----5----5----5----|--2-2-2-0-0--0--|--5----5----5----5----|
----------------------|----------------|----------------------|


                                                                    
--0----0--0--0----0----|--5----5----5----5----|--5--------5--------|
--0----0--0--0----0----|--5----5----5----5----|--5--------5--------|
--0----0--0--0----0----|--5----5----5----5----|--5--------5--------|
--0----0--0--0----0----|--5----5----5----5----|--5--------5--------|
--0----0--0--0----0----|--5----5----5----5----|--5--------5--------|
-----------------------|----------------------|--------------------|


                                                             
--0---------------
--0---------------
--0---------------
--0---------------
--0---------------
------------------

Comments