Rolling Stones - Jumpin Jack Flash Chords & Tabs

 

Jumpin Jack Flash Chords & Tabs

Rolling Stones Chords & Tabs

Version: 7 Type: Tab 0 ratings
1 star 2 stars 3 stars 4 stars 5 stars
comments

Jumpin Jack Flash Tab

   
JUMPIN' JACK FLASH
As recorded by The Rolling Stones
(Released as a Single in 1968)



Transcribed by www.mikesguitarsite.co.ukWords and Music by Mick Jagger & Keith Richards

G
3 5 5 4 3 3C
x 3 2 0 1 3F
1 3 3 2 1 1B
x 14 13 11 12 11FV
x 8 7 5 6 5CIII
x x x 5 5 3G(type 2)
x x 5 4 3 3Dm11
10 10 10 10 10 10Am11
5 5 5 5 5 5Eb
0 0 0 0 0 0Bb
7 7 7 7 7 7Ebadd9/Bb
7 9 7 8 7 7Gtr I (E A D G B E) - 'Clean Electric Rhythm / Lead w/capo at 3rd fret notes relative to capo'
Gtr II (Eb Bb Eb G Bb Eb) - 'Clean Electric Rhythm'

Intro
  Q=132
 4/4
  Gtr I
  Q  E E +E  E Q    Q   E E +E  E E S S
|-3----3-(3)---3--|-3-----1-(1)---1-----|
|-3----3-(3)---3--|-1-----1-(1)---1-----|
|-4--4-4-(4)-4-4--|-0-----2-(2)---2-----|
|-5--5-5-(5)-5-5--|-2---2-3-(3)-3-3-3-3-|
|-5--5-5-(5)-5-5--|-3---3-3-(3)-3-3-3-3-|
|-3--3-3-(3)-3-3--|-------1-(1)-1-1-1-1-|
|
| Gtr II
| W                 Q.    E +H
|-----------------|-0-----5-(5)---------|
|-----------------|-0-----5-(5)---------|
|-----------------|-0-----5-(5)---------|
|-----------------|-0-----5-(5)---------|
|-----------------|-0-----5-(5)---------|
|-----------------|-0-----5-(5)---------|


  G                 C        F           G                 C        F
  Gtr I
  E E E E E E E E   E  E E E  E  E E E   E E E E E E E E   E  E E E  E  E E E
  | | | | | | | |   |  | | |  |  | | |   | | | | | | | |   |  | | |  |  | | |
  / / / / / / / /   /  / / /  /  / / /   / / / / / / / /   /  / / /  /  / / /

  Gtr II
  W                 Q.     E +H          W                 Q.     E +H
|-7---------------|-0------5-(5)-------|-7---------------|-0------5-(5)-------|
|-7---------------|-0------5-(5)-------|-7---------------|-0------5-(5)-------|
|-7---------------|-0------5-(5)-------|-7---------------|-0------5-(5)-------|
|-7---------------|-0------5-(5)-------|-7---------------|-0------5-(5)-------|
|-7---------------|-0------5-(5)-------|-7---------------|-0------5-(5)-------|
|-7---------------|-0------5-(5)-------|-7---------------|-0------5-(5)-------|


  G
  E  E E E E E  E  S S   E  E E E E E  E  S S   E  E E E E E  E  E
  |  | | | | |  |  | |   |  | | | | |  |  | |   |  | | | | |  |  |
  /  / / / / /  /  / /   /  / / / / /  /  / /   /  / / / / /  /  /

  H.           +E  S S   H.           +E  S S   H.           +E  E
|-7------------(7)-7-7-|-7------------(7)-7-7-|-7------------(7)---||
|-7------------(7)-7-7-|-7------------(7)-7-7-|-7------------(7)---||
|-7------------(7)-7-7-|-7------------(7)-7-7-|-7------------(7)---||
|-7------------(7)-7-7-|-7------------(7)-7-7-|-7------------(7)---||
|-7------------(7)-7-7-|-7------------(7)-7-7-|-7------------(7)-5-||
|-7------------(7)-7-7-|-7------------(7)-7-7-|-7------------(7)---||


   Pre-Verse
    $
    Gtr I
    Q  Q  +E  E E E    E  E E E  E  E E E
||------------------|----------------------||
||o-----------------|---------------------o||
||------------------|----------------------||
||--5--5--(5)-----3-|---------3---------3--||
||o-5--5--(5)-3-5---|--3--4-5----3--4-5---o||
||--5--5--(5)-------|----------------------||
|
|   Gtr II
|   Q  Q  +E  E E E   +E  E E E +E  E E E
||------------------|----------------------||
||o-----------------|---------------------o||
||------------------|----------------------||
||--7--7--(7)-----5-|-(5)-----5-(5)-----5--||
||o-7--7--(7)-5-7-5-|-(5)-5-7-5-(5)-5-7-5-o||
||--7--7--(7)-------|----------------------||


   Verse
    Q  Q  +E  E E E   +E  E E E +E  E E E
||--3--3--(3)-------|---------------------|
||o-3--3--(3)-------|---------------------|
||--4--4--(4)-------|---------------------|
||--5--5--(5)-----3-|-(3)-----3-(3)-----3-|
||o-5--5--(5)-3-5---|-----3-5-------3-5---|
||--3--3--(3)-------|---------------------|
|
|   Q  Q  +E  E E E   +E  E E E +E  E E E
||------------------|---------------------|
||o-----------------|---------------------|
||------------------|---------------------|
||--7--7--(7)-----5-|-(5)-----5-(5)-----5-|
||o-7--7--(7)-5-7-5-|-(5)-5-7-5-(5)-5-7-5-|
||--7--7--(7)-------|---------------------|


  Q  Q  +E  E E E    E  E E E  E  E E E
|-3--3--(3)-------|-----------------------||
|-3--3--(3)-------|----------------------o||
|-4--4--(4)-------|-----------------------||
|-5--5--(5)-----3-|---------3---------3---||
|-5--5--(5)-3-5---|--3--4-5----3--4-5----o||
|-3--3--(3)-------|-----------------------||
|
| Q  Q  +E  E E E   +E  E E E +E  E E E
|-----------------|-----------------------||
|-----------------|----------------------o||
|-----------------|-----------------------||
|-7--7--(7)-----5-|-(5)-----5-(5)-----5---||
|-7--7--(7)-5-7-5-|-(5)-5-7-5-(5)-5-7-5--o||
|-7--7--(7)-------|-----------------------||


   Chorus
    $$
    Dm11                     Am11
    Gtr II
     Q     E E  E  E  E  E   Q   E E E E E E
     |     | |  |  |  |  |   |   | | | | | |
     /     / /  /  /  /  /   /   / / / / / /

    Gtr I
     E  E  E E  E  E  E  E   E E E E E E E E
||--------10---------------|-----5----------|
||o-11----11---13-11-11----|-5---6---8-6-6--|
||--10-10-10-x-10-10-10-10-|-5-5---x-5-5-5-5|
||--12---------------------|-7--------------|
||o------------------------|----------------|
||-------------------------|----------------|


                   1.                   2.
                                                     To Coda
  Eb                Bb                  Bb
  Q   E E E E E E   Q   E E E E E E     Q   E E E E  E  E
  |   | | | | | |   |   | | | | | |     |   | | | |  |  |
  /   / / / / / /   /   / / / / / /     /   / / / /  /  /
[ Tab from: http://www.guitartabs.cc/tabs/r/rolling_stones/jumpin_jack_flash_tab_ver_7.html ]
  E E E E E E E E   E E E E E E E E     H.          +E  S S
|-3---6---5-3---3-|---3-6---5-3---3--||-3-----------(3)-3-3--|
|-5-5-5-5-5-5-5-5-|-3-3-3-3-3-3-3-3-o||-3-----------(3)-3-3--|
|-5-5-----5-5-5-5-|-4-4-3---4-4-4-4--||-4-----------(4)-4-4--|
|-----------------|-5----------------||-5-----------(5)-5-5--|
|-----------------|-----------------o||----------------------|
|-----------------|------------------||----------------------|


                                     D.S.
  Bb
  Q   E E +E E  Q        Q  E E +E  E Q
  |   | |  | |           |  | |  |  |
  /   / /  / /           /  / /  /  /

  H.           +E  S S   H      +E  E E  E
|-3------------(3)-7-7-|-7------(7)-7-7\---||
|-3------------(3)-8-8-|-8------(8)-8-8\---||
|-4------------(4)-7-7-|-7------(7)--------||
|-5------------(5)-----|-------------------||
|----------------------|-------------------||
|----------------------|-------------------||




Gtr I
    E E E E  E  E E E   E E E E +E  E Q   4x
||----3------3------3-|-----3-------------||
||o-3-----3-------3---|-5p3---------3-5--o||
||------0-------0-----|-------5-(5)-------||
||--------------------|-------------------||
||o-------------------|------------------o||
||--------------------|-------------------||
|
|Gtr II enters on 1st repeat
|
|   Q   Q   +E  E Q     E E E E +E  E Q   3x
||--------------------|-------------------||
||o-------------------|------------------o||
||------7---(7)-7-7---|-------------5-----||
||------7---(7)-7-7---|-----0-------5-----||
||o-7-----------------|---0--------------o||
||--------------------|-0-----5-(5)---5---||


  E E E E E E  E  E     E E E E E E  E  E     E  E E E E E E E
|---3-----3-------3---|---3-----3-------3---|----3-----3-----3-||
|-3-----3------3------|-3-----3------3------|-3------3-----3---||
|-----0-----0---------|-----0-----0---------|------0-----0-----||
|---------------------|---------------------|------------------||
|---------------------|---------------------|------------------||
|---------------------|---------------------|------------------||
|
| Q   H       +E  S S   Q   H       +E  S S   H.           Q
|-7---7-------(7)-7-7-|-7---7-------(7)-7-7-|-7----------------||
|-7---7-------(7)-7-7-|-7---7-------(7)-7-7-|-7----------------||
|-7---7-------(7)-7-7-|-7---7-------(7)-7-7-|-7----------------||
|-7---7-------(7)-7-7-|-7---7-------(7)-7-7-|-7----------------||
|-7---7-------(7)-7-7-|-7---7-------(7)-7-7-|-7----------------||
|-7---7-------(7)-7-7-|-7---7-------(7)-7-7-|-7----------------||


   Pre-Verse
    Q  Q  +E  E E E    E  E E E  E  E E E
||------------------|----------------------||
||o-----------------|---------------------o||
||------------------|----------------------||
||--5--5--(5)-----3-|---------3---------3--||
||o-5--5--(5)-3-5---|--3--4-5----3--4-5---o||
||--5--5--(5)-------|----------------------||
|
|   Q  Q  +E  E E E   +E  E E E +E  E E E
||------------------|----------------------||
||o-----------------|---------------------o||
||------------------|----------------------||
||--7--7--(7)-----5-|-(5)-----5-(5)-----5--||
||o-7--7--(7)-5-7-5-|-(5)-5-7-5-(5)-5-7-5-o||
||--7--7--(7)-------|----------------------||


   Verse
    Q  Q  +E  E E E   +E  E E E +E  E E E
||--3--3--(3)-------|---------------------|
||o-3--3--(3)-------|---------------------|
||--4--4--(4)-------|---------------------|
||--5--5--(5)-----3-|-(3)-----3-(3)-----3-|
||o-5--5--(5)-3-5---|-----3-5-------3-5---|
||--3--3--(3)-------|---------------------|
|
|   Q  Q  +E  E E E   +E  E E E +E  E E E
||------------------|---------------------|
||o-----------------|---------------------|
||------------------|---------------------|
||--7--7--(7)-----5-|-(5)-----5-(5)-----5-|
||o-7--7--(7)-5-7-5-|-(5)-5-7-5-(5)-5-7-5-|
||--7--7--(7)-------|---------------------|


                                       D.S.S. al Coda
  Q  Q  +E  E E E    E  E E E  E  E E E   4x
|-3--3--(3)-------|-----------------------||
|-3--3--(3)-------|----------------------o||
|-4--4--(4)-------|-----------------------||
|-5--5--(5)-----3-|---------3---------3---||
|-5--5--(5)-3-5---|--3--4-5----3--4-5----o||
|-3--3--(3)-------|-----------------------||
|
| Q  Q  +E  E E E   +E  E E E +E  E E E   4x
|-----------------|-----------------------||
|-----------------|----------------------o||
|-----------------|-----------------------||
|-7--7--(7)-----5-|-(5)-----5-(5)-----5---||
|-7--7--(7)-5-7-5-|-(5)-5-7-5-(5)-5-7-5--o||
|-7--7--(7)-------|-----------------------||


 Outro
  &
  Bb
  Gtr II
  Q   E E +E E  E  S S   Q  E E +E  E E  S S
  |   | |  | |  |  | |   |  | |  |  | |  | |
  /   / /  / /  /  / /   /  / /  /  / /  / /

  Gtr I
  H.           +E  S S   H      +E  E E  E
|-7------------(7)-7-7-|-7------(7)-7-7\-----||
|-8------------(8)-8-8-|-8------(8)-8-8\-----||
|-7------------(7)-7-7-|-7------(7)----------||
|----------------------|---------------------||
|----------------------|---------------------||
|----------------------|---------------------||


    Bb                 Ebadd9/Bb
    Q  Q   +E  E Q     Q  E E +E  E Q
    |  |    |  | |     |  | |  |  | |
    /  /    /  / /     /  / /  /  / /

    Q  E E +E  E E E   Q  E E +E  E E E
||--3--3-3-(3)-3-3-3-|-------------------||
||o-3--3-3-(3)-3-3-3-|-5--5-5-(5)-5-5-5-o||
||--4--4-4-(4)-4-4-4-|-5--5-5-(5)-5-5-5--||
||--5--5-5-(5)-5-5-5-|-5--5-5-(5)-5-5-5--||
||o-5--5-5-(5)-5-5-5-|-3--3-3-(3)-3-3-3-o||
||--3--3-3-(3)-3-3-3-|-------------------||


    Bb                Ebadd9/Bb
    Q  Q   +E  E Q    Q    E  E  +E  E Q
    |  |    |  | |    |    |  |   |  | |
    /  /    /  / /    /    /  /   /  / /

    Q  E E +E  E Q    E E  E  E  +E  E Q
||--3--3-5-(5)-5-3--|-8-8------------------||
||o-3---------------|-8---11-10-(10)-8-8--o||
||--4---------------|-9--------------------||
||------------------|----------------------||
||o-----------------|---------------------o||
||------------------|----------------------||
Comments