Rolling Stones - It Wont Take Long Chords & Tabs

 

It Wont Take Long Chords & Tabs

Rolling Stones Chords & Tabs

Version: 1 Type: Tab 0 ratings
1 star 2 stars 3 stars 4 stars 5 stars
comments

It Wont Take Long Tab

   
It is one of the best songs of the album. It is not 100% correct but is good to play. If 
have any suggestion send it to me: la12delsur@hotmail.com

INTRO and VERSE
e:----------------|
B:-0--0---2-0-2/4-|
G:-0--0---2-0-2/4-|
D:-0--0---2-0-2/4-|
A:----------------|
E:----------------|
[ Tab from: http://www.guitartabs.cc/tabs/r/rolling_stones/it_wont_take_long_tab.html ]
CHORUS
e:---------------------|
B:-9-9-9-9-7-7-4-4-4-4-|
G:-9-9-9-9-7-7-4-4-4-4-|
D:-9-9-9-9-7-7-4-4-4-4-|
A:---------------------|
E:---------------------|

ORDER
INTRO
VERSE x2
CHORUS
INTRO
VERSE x2
CHORUS
VERSE
CHORUS
INTRO (And it won't take long...)
Comments