Rolling Stones - Gimme Shelter Chords & Tabs

 

Gimme Shelter Chords & Tabs

Rolling Stones Chords & Tabs

Version: 3 Type: Tab 0 ratings
1 star 2 stars 3 stars 4 stars 5 stars
comments

Gimme Shelter Tab

Band: The Rolling Stones
Song: Gimme Shelter
Album: Let It Bleed
Tabber: clark@theoddmenout.com

Guitar 1: Electric Rhythm
Guitar 2: Electric Lead

Intro:

Guitar 1
e-------------------------------------------------------------------|
B------7---7---7-7-----5---5---5-5-------4p2---4-2---4-2---4-2---2--|
G----6---8-----8-8-------6---6-6-4-2-----------------------4-2-4----|
D--6---------6-------4-----------------2-----2-----2-----2----------|
A-------------------------------------------------------------------|
E-------------------------------------------------------------------|

Guitar 2
e-------------------------------------------------------------------|
B---------------------------------------------------------12-14-14--|
G-------------------------------------------------------------------|
D-------------------------------------------------------------------|
A-------------------------------------------------------------------|
E-------------------------------------------------------------------|

Guitar 1
e---------------------------------------------------------------|
B-----7--7-7-7-------5---5-5-5-5-----4-2---4-2---4-2---5-5-4-4--|
G-----8--8-6-6-----------4-4-4-6-----4-2---4-2---4-2---4-4-4-4--|
D--6-----------6---4---4-----------2-----2-----2-----2----------|
A---------------------------------------------------------------|
E---------------------------------------------------------------|

Guitar 2
e---------------------------------------------------------------|
B-------------12-9-----------/10----------------------12-14-14--|
G------------------------------------------11-13----------------|
D---------------------------------------------------------------|
A---------------------------------------------------------------|
E---------------------------------------------------------------|

Guitar 1
e---------------------------------------------------------------|
B-----7--7-7-7-------5---5-5-5-5-----4-2---4-2---4-2---5-5-4-4--|
G-----8--8-6-6-----------4-4-4-6-----4-2---4-2---4-2---4-4-4-4--|
D--6-----------6---4---4-----------2-----2-----2-----2----------|
A---------------------------------------------------------------|
E---------------------------------------------------------------|

Guitar 2
e---------------------------------------------------------------|
B-----------9b10-9b10-r9-------12-14--12-14--9b10r9---12-14-14--|
G---------------------------------------------------------------|
D---------------------------------------------------------------|
A---------------------------------------------------------------|
E---------------------------------------------------------------|

Guitar 1
e-----------------------------------------------------------------|
B--6-6-7-7-9-7-6-------4---7-5-4-------4-2---4-2---4-2-----5-4----|
G--6-6-6-6-6-6---6---4---4-4-4---4---2-----2-----2-----2-4-----5--|
D-----------------------------------------------------------------|
A-----------------------------------------------------------------|
E-----------------------------------------------------------------|

Guitar 2
e--------------------------------------------7-9------------------|
B-----------7-9b10r9-------------12---14---------9-9b10-9b10-r9---|
G-----------------------------------------------------------------|
D-----------------------------------------------------------------|
A-----------------------------------------------------------------|
E-----------------------------------------------------------------|

Guitar 1
e-----------------------------------------------------------------|
B--6-6-7-7-9-7-6-------4---7-5-4-------4-2---4-2---4-2-----5-4----|
G--6-6-6-6-6-6---6---4---4-4-4---4---2-----2-----2-----2-4-----5--|
D-----------------------------------------------------------------|
A-----------------------------------------------------------------|
E-----------------------------------------------------------------|

Guitar 2
e-----------------------------------------------------------------|
B------------------------------12-14-12---9----9---12-14-12-14----|
G----------------13-11----------------------11--------------------|
D-----------------------------------------------------------------|
A-----------------------------------------------------------------|
E-----------------------------------------------------------------|

Guitar 1
e---------------------------------------------------------------|
B----7--9-7----5--7-5------4-2---4-2----------------------------|
G----6--6-6----4--4-4------4-2---4-2----------------------------|
D------------------------2-----2--------------------------------|
A---------------------------------------7---7---9---9-----------|
E-------------------------------------0-5-0-5-0-7-0-7-----------|

Guitar 2
e------------7-9-7------------------------7-9-7-----------------|
B----5-7-5-----------9b10--9b10---7-9-7------------7b8r7p5------|
G----------4----------------------------9-------9----------6-6--|
D---------------------------------------------------------------|
A---------------------------------------------------------------|
E---------------------------------------------------------------|



Verse 1:

Guitar 1
e----------------------------------------------------|
B--6---6---7-6---6-----------6---6-------7-6---------|
G--6---6---6-6---6----4-6----6---6---9-6-6-6----4-6--|
D--6---6---6-6-6-6--6-4-6----6---6---6-6-6-6--6-4-6--|
A--4---4---------------------4-----------------------|
E----------------------------------------------------|
 "Oh,  a storm is threat'ning my very life today"

Guitar 2
e---------------------------------------------------|
B---------------------------------------------------|
G---------------------------------------------------|
D---------------------------------------------------|
A---------------------------------------------------|
E---------------------------------------------------|

Guitar 1
e------------------------------------------------------|
B--6---6----7-6---6------------6---6-------7-6---------|
G--6---6----6-6---6----4-6-----6---6---9-6-6-6----4-6--|
D--6---6----6-6-6-6--6-4-6-----6---6---6-6-6-6--6-4-6--|
A--4---4-----------------------4-----------------------|
E------------------------------------------------------|
 "If I don't get some shelter, oh yeah, I'm gonna fade away

Guitar 2
e------------------------------------------------------|
B------------------------------------------------------|
G------------9b-9-9b-7---------------------------------|
D----11-9-11------------11-9-11------------------------|
A------------------------------------------------------|
E------------------------------------------------------|


Chorus 1:

Guitar 1
e-------------------------------------------------------------|
B--6---6--6-6-6--4---4--4-4-4--2---2--2-2-2-------------------|
G--6---6--6-6-6--4---4--4-4-4--2---2--2-2-2-------------------|
D--6---6--6-6-6--4---4--4-4-4--2---2--2-2-2-------------------|
A--4---4--4-4-4--2---2--2-2-2--0---0--0-0-0----7---7---9---9--|
E--------------------------------------------0-5-0-5-0-7-0-7--|
 "War, children, it's just a shot away,  It's just a shot away"
 
Guitar 2
e-------------------------------------------------------------|
B-------------------------------------------------------------|
G-----------------------------------11b12r11-------11-9-------|
D----------------------------9-11-9----------9----------11v---|
A-------------------------------------------------------------|
E-------------------------------------------------------------|

Guitar 1
e--------------------------------------------------------------------|
B--6---6--6-6-6--4---5--5-5-5--2---2--2-2-2--------------------------|
G--6---6--6-6-6--4---4--4-4-4--2---2--2-2-2--------------------------|
D--6---6--6-6-6--4---4--4-4-4--2---2--2-2-2--------------------------|
A--4---4--4-4-4--2---2--2-2-2--0---0--0-0-0----7---7---9---9---------|
E--------------------------------------------0-5-0-5-0-7-0-7---------|
 "War, children, it's just a shot away,  It's just a shot away"

Guitar 2
e--------------------------------------------------------------------|
B--------------------------------------------------------------------|
G---------------------------11b12--------11b13-b13-b13-b13r11-11-----|
D----------------------9-11-------11-----------------------------11--|
A--------------------------------------------------------------------|
E--------------------------------------------------------------------|


Break:

Guitar 1
e-----------------------------------------------------------------------|
B--6---6--6-6-6--6-----7-----6---6--6-6-6--6-----7-----7-7-6------------|
G--6---6--6-6-6--6-9-6-6-6---6---6--6-6-6--6-9-6-6-6---6-6-6------------|
D--6---6--6-6-6--6-6-6-6-6---6---6--6-6-6--6-6-6-6-6---6-6-6------------|
A--4---4--4-4-4--------------4---4--4-4-4--------------4-4-4------------|
E-----------------------------------------------------------------------|

Guitar 2
e-----------------------------------------------------------------------|
B--------------------------12b14-b14-b14-b14r12-------------------------|
G-----------------------------------------------11--9-----11b12r-11-----|
D-----------------------------------------------------11------------11--|
A-----------------------------------------------------------------------|
E-----------------------------------------------------------------------|


Verse 2:

Guitar 1
e--------------------------------------------------------|
B--6---6---7-6---6---------------6---6-------7-6---------|
G--6---6---6-6---6----4-6--------6---6---9-6-6-6----4-6--|
D--6---6---6-6-6-6--6-4-6--------6---6---6-6-6-6--6-4-6--|
A--4---4-------------------------4-----------------------|
E--------------------------------------------------------|
  "Ooh, see the fire is sweepin' our very street today"

Guitar 2
e--------------------------------------------------------|
B--------------------------------------------------------|
G--------------------------------11b12r11-9--------------|
D-------------------------------------------11-----------|
A--------------------------------------------------------|
E--------------------------------------------------------|

Guitar 1
e--------------------------------------------------------|
B--6---6---7-6---6---------------6---6-------7-6---------|
G--6---6---6-6---6----4-6--------6---6---9-6-6-6----4-6--|
D--6---6---6-6-6-6--6-4-6--------6---6---6-6-6-6--6-4-6--|
A--4---4-------------------------4-----------------------|
E--------------------------------------------------------|
"Burns like a red coal carpet, mad bull lost your way"

Guitar 2
e--------------------------------------------------------|
B----------------------------------7b8-b8-b8-b8r7-7------|
G---------------------------------------------------9-6--|
D--------------------------------------------------------|
A--------------------------------------------------------|
E--------------------------------------------------------|


Chorus 2:

Guitar 1
e--------------------------------------------------------------------|
B--6---6--6-6-6--4---4--4-4-4--2---2--2-2-2--------------------------|
G--6---6--6-6-6--4---4--4-4-4--2---2--2-2-2--------------------------|
D--6---6--6-6-6--4---4--4-4-4--2---2--2-2-2--------------------------|
A--4---4--4-4-4--2---2--2-2-2--0---0--0-0-0----7---7---9---9---------|
E--------------------------------------------0-5-0-5-0-7-0-7---------|
 "War, children, it's just a shot away,  It's just a shot away"
 
Guitar 2
e--------------12-9--------------------------------------------------|
B------------9------12----------------------------9---------5-7-5----|
G--11b13---------------9-11-9---------------11b13---11b13-9-------6--|
D-----------------------------11-------------------------------------|
A--------------------------------------------------------------------|
E--------------------------------------------------------------------|

Guitar 1
e----------------------------------------------------------------------|
B--6---7--7-7-7--4---5--5-5-5--2---2--2-2-2----------------------------|
G--6---6--6-6-6--4---4--4-4-4--2---2--2-2-2----------------------------|
D--6---6--6-6-6--4---4--4-4-4--2---2--2-2-2----------------------------|
A--4---4--4-4-4--2---2--2-2-2--0---0--0-0-0----7---7---9---9-----------|
E--------------------------------------------0-5-0-5-0-7-0-7-----------|
 "War, children, it's just a shot away,  It's just a shot away"
 
Guitar 2
e----------------------------------------------------------------------|
B---------------------7b8-b8-b8-----7b8-b8-b8-b8---7b8-b8-b8-b8-b8r----|
G-------------------------------9-----------------------------------9--|
D----------------------------------------------------------------------|
A----------------------------------------------------------------------|
E----------------------------------------------------------------------|


Break:

Guitar 1
e---------------------------------------------------------|
B--6---6---7-6---6-----------6---6-------7-6--------------|
G--6---6---6-6---6----4-6----6---6---9-6-6-6----4-6-------|
D--6---6---6-6-6-6--6-4-6----6---6---6-6-6-6--6-4-6-------|
A--4---4---------------------4----------------------------|
E---------------------------------------------------------|

Guitar 2
e---------------------------------------------------------|
B----------------------------5---5-7b8-b8-b8r7-7-5-7-5----|
G----------9-6-9-6--------6----6-----------------------6--|
D---------------------------------------------------------|
A---------------------------------------------------------|
E---------------------------------------------------------|

Guitar 1
e--------------------------------------------------------------------------|
B--6---6---7-6---6-----------6---6-------7-6-------------------------------|
G--6---6---6-6---6----4-6----6---6---9-6-6-6----4-6------------------------|
D--6---6---6-6-6-6--6-4-6----6---6---6-6-6-6--6-4-6------------------------|
A--4---4---------------------4---------------------------------------------|
E--------------------------------------------------------------------------|
[ Tab from: http://www.guitartabs.cc/tabs/r/rolling_stones/gimme_shelter_tab_ver_3.html ]
Guitar 2
e---------------7----------------------------------------------------------|
B----------7b8----7b8r7-5------------12-12-------12--------12--------------|
G-------------------------6----11b12-------11b12-----11b12----11b13r11-----|
D----------------------------------------------------------------------11--|
A--------------------------------------------------------------------------|
E--------------------------------------------------------------------------|
^ The two guitars should actually finish at the same time


Solo:

Guitar 1
e----------------------------------------------------------------------|
B--6---6--6-6-6--4---4--4-4-4--2---2--2-2-2----------------------------|
G--6---6--6-6-6--4---4--4-4-4--2---2--2-2-2----------------------------|
D--6---6--6-6-6--4---4--4-4-4--2---2--2-2-2----------------------------|
A--4---4--4-4-4--2---2--2-2-2--0---0--0-0-0----7---7---9---9-----------|
E--------------------------------------------0-5-0-5-0-7-0-7-----------|

Guitar 2
e----------------------------------------------------------------------|
B----------------------------------------------12----------------------|
G----11b13--9---------9b----------9----9-11b13----b13r11-9-11-9-11b13--|
D-------------11-9-11----11-9-11----11---------------------------------|
A----------------------------------------------------------------------|
E----------------------------------------------------------------------|

e------------------------------|
B------------------------------|
G--b13-b13-b13-b13r11-9--------|
D-----------------------11-11--|
A------------------------------|
E------------------------------|

Guitar 1
e--------------------------------------------------------------------------|
B--6---6--6-6-6--4---4--4-4-4--2---2--2-2-2--------------------------------|
G--6---6--6-6-6--4---4--4-4-4--2---2--2-2-2--------------------------------|
D--6---6--6-6-6--4---4--4-4-4--2---2--2-2-2--------------------------------|
A--4---4--4-4-4--2---2--2-2-2--0---0--0-0-0----7---7---9---9---------------|
E--------------------------------------------0-5-0-5-0-7-0-7---------------|

Guitar 2
e--------------------------------------------------------------------------|
B--------------------------------------------------------------------------|
G----------------------9b-----------------11b13-b13-b13-b13r11-11-9--------|
D-------------------------11----------------------------------------11-11--|
A--------------------------------------------------------------------------|
E--------------------------------------------------------------------------|

Guitar 1
e----------------------------------------------------------------------|
B--6---6--6-6-6--4---4--4-4-4--2---2--2-2-2----------------------------|
G--6---6--6-6-6--4---4--4-4-4--2---2--2-2-2----------------------------|
D--6---6--6-6-6--4---4--4-4-4--2---2--2-2-2----------------------------|
A--4---4--4-4-4--2---2--2-2-2--0---0--0-0-0----7---7---9---9-----------|
E--------------------------------------------0-5-0-5-0-7-0-7-----------|

Guitar 2
e----------------------------------------------------------------------|
B---------------12b14-b14-b14-b14-b14r12-12----------------------------|
G-------------------------------------------11-9-----------9-11b13r11--|
D------------------------------------------------11---9/11-------------|
A----------------------------------------------------------------------|
E----------------------------------------------------------------------|

e------------------------|
B------------------------|
G--11-9---------9-11b13--|
D-------11-9-11----------|
A------------------------|
E------------------------|

Chorus 3:

Guitar 1
e-------------------------------------------------------------|
B--6---6--6-6-6--4---4--4-4-4--2---2--2-2-2-------------------|
G--6---6--6-6-6--4---4--4-4-4--2---2--2-2-2-------------------|
D--6---6--6-6-6--4---4--4-4-4--2---2--2-2-2-------------------|
A--4---4--4-4-4--2---2--2-2-2--0---0--0-0-0----7---7---9---9--|
E--------------------------------------------0-5-0-5-0-7-0-7--|
  "Rape, Murder, it's just a shot away, it's just a shot away"

Guitar 2
e-------------------------------------------------------------|
B-------------------------------------------------------------|
G---------------------9-------------9-------------------------|
D------------------------11v---9-11---11----------------------|
A-------------------------------------------------------------|
E-------------------------------------------------------------|

Guitar 1
e-----------------------------------------------------------------------|
B--6---7--7-7-7--4---5--5-5-5--2---2--2-2-2-----------------------------|
G--6---6--6-6-6--4---4--4-4-4--2---2--2-2-2-----------------------------|
D--6---6--6-6-6--4---4--4-4-4--2---2--2-2-2-----------------------------|
A--4---4--4-4-4--2---2--2-2-2--0---0--0-0-0----7---7---9---9------------|
E--------------------------------------------0-5-0-5-0-7-0-7------------|
  "Rape, Murder, it's just a shot away, it's just a shot away"

Guitar 2
e------------------------------------------------------------------------|
B------------------------------------------------------------------------|
G-----------------11b12r11-9------11b12--9-11---11b13--b13r11-9-11-9-----|
D----------------------------11--------------------------------------11--|
A------------------------------------------------------------------------|
E------------------------------------------------------------------------|

Guitar 1
e--------------------------------------------------------------------------|
B--6---7--7-7-7--4---5--5-5-5--2---2--2-2-2--------------------------------|
G--6---6--6-6-6--4---4--4-4-4--2---2--2-2-2--------------------------------|
D--6---6--6-6-6--4---4--4-4-4--2---2--2-2-2--------------------------------|
A--4---4--4-4-4--2---2--2-2-2--0---0--0-0-0----7---7---9---9---------------|
E--------------------------------------------0-5-0-5-0-7-0-7---------------|
  "Rape, Murder, it's just a shot away, it's just a shot away"

Guitar 2
e--------------------------------------------------------------------------|
B----------------------------------------------------7b9-b9-b9-b9-b9-b9r7--|
G-----------------9-------11b13-b13-b13-b13r11-9---------------------------|
D------------9-11---11---------------------------11------------------------|
A--------------------------------------------------------------------------|
E--------------------------------------------------------------------------|


Break:

Guitar 1
e------------------------------------------------------------------|
B--6---6---7-6---6-----------6---6-------7-6-----------------------|
G--6---6---6-6---6----4-6----6---6---9-6-6-6----4-6----------------|
D--6---6---6-6-6-6--6-4-6----6---6---6-6-6-6--6-4-6----------------|
A--4---4---------------------4-------------------------------------|
E------------------------------------------------------------------|

Guitar 2
e------------------------------------------------------------------|
B------------------------------------------------------------------|
G--7/9----9----9-----------------11b13-b13-b13-b13-b13r11-11-9-----|
D-----------11---11v-------------------------------------------11--|
A------------------------------------------------------------------|
E------------------------------------------------------------------|


Verse 3:

Guitar 1
e--------------------------------------------------------|
B--6---6---7-6---6---------------6---6-------7-6---------|
G--6---6---6-6---6----4-6--------6---6---9-6-6-6----4-6--|
D--6---6---6-6-6-6--6-4-6--------6---6---6-6-6-6--6-4-6--|
A--4---4-------------------------4-----------------------|
E--------------------------------------------------------|
"Mmmm, the floods is threat'ning my very life today"

Guitar 2
[none]

Guitar 1
e--------------------------------------------------------|
B--6---6---7-6---6---------------6---6-------7-6---------|
G--6---6---6-6---6----4-6--------6---6---9-6-6-6----4-6--|
D--6---6---6-6-6-6--6-4-6--------6---6---6-6-6-6--6-4-6--|
A--4---4-------------------------4-----------------------|
E--------------------------------------------------------|
"Gimmie, gimmie shelter, or I'm gonna fade away"

Guitar 2
[none]


Chorus 4:

Guitar 1
e-----------------------------------------------------------------------|
B--6---6--6-6-6--4---4--4-4-4--2---2--2-2-2-----------------------------|
G--6---6--6-6-6--4---4--4-4-4--2---2--2-2-2-----------------------------|
D--6---6--6-6-6--4---4--4-4-4--2---2--2-2-2-----------------------------|
A--4---4--4-4-4--2---2--2-2-2--0---0--0-0-0----7---7---9---9------------|
E--------------------------------------------0-5-0-5-0-7-0-7------------|
 "War, children, it's just a shot away,  It's just a shot away"

Guitar 2
e-------------------------------------------------------------------------|
B-------------------------------------------------------------------------|
G-------------------9----11b---------------11b13-b13-b13-b13-b13r11-9-----|
D---------------------11-----11---------------------------------------11--|
A-------------------------------------------------------------------------|
E-------------------------------------------------------------------------|

Guitar 1
e---------------------------------------------------------------------|
B--6---7--7-7-7--4---5--5-5-5--2---2--2-2-2---------------------------|
G--6---6--6-6-6--4---4--4-4-4--2---2--2-2-2---------------------------|
D--6---6--6-6-6--4---4--4-4-4--2---2--2-2-2---------------------------|
A--4---4--4-4-4--2---2--2-2-2--0---0--0-0-0----7---7---9---9----------|
E--------------------------------------------0-5-0-5-0-7-0-7----------|
 "It's just a shot away, it's just a shot away, it's just a shot away!"

Guitar 2
e---------------------------------------------------------------------|
B---------------------------------------------------------------------|
G------------------11b13r-11-9----------------------------------------|
D------------------------------11-------------------------------------|
A---------------------------------------------------------------------|
E---------------------------------------------------------------------|

Guitar 1
e---------------------------------------------------------------------|
B--6---7--7-7-7--4---5--5-5-5--2---2--2-2-2---------------------------|
G--6---6--6-6-6--4---4--4-4-4--2---2--2-2-2---------------------------|
D--6---6--6-6-6--4---4--4-4-4--2---2--2-2-2---------------------------|
A--4---4--4-4-4--2---2--2-2-2--0---0--0-0-0----7---7---9---9----------|
E--------------------------------------------0-5-0-5-0-7-0-7----------|
"I tell ya, love, sister, it's just a kiss away, it's just a kiss away"

Guitar 2
e---------------------------------------------------------------------|
B---------------------------------------------------------------------|
G-------------------9-11-11b13--b13-b13-b13-b13-b13-b13-b13-b13-------|
D----------------11---------------------------------------------------|
A---------------------------------------------------------------------|
E---------------------------------------------------------------------|

Guitar 1
e---------------------------------------------------------------------|
B--6---7--7-7-7--4---5--5-5-5--2---2--2-2-2---------------------------|
G--6---6--6-6-6--4---4--4-4-4--2---2--2-2-2---------------------------|
D--6---6--6-6-6--4---4--4-4-4--2---2--2-2-2---------------------------|
A--4---4--4-4-4--2---2--2-2-2--0---0--0-0-0----7---7---9---9----------|
E--------------------------------------------0-5-0-5-0-7-0-7----------|
"It's just a kiss away, it's just a kiss away, it's just a kiss away, kiss  away, kiss away!"

Guitar 2
e---------------------------------------------------------------------|
B---------------------------------------------------------------------|
G---------------------9-----------------------------------------------|
D-----------------------11v-------------------------------------------|
A---------------------------------------------------------------------|
E---------------------------------------------------------------------|


Outro:

Guitar 1
e---------------------------------------------------------------------|
B--6---7--7-7-7--4---5--5-5-5--2---2--2-2-2---------------------------|
G--6---6--6-6-6--4---4--4-4-4--2---2--2-2-2---------------------------|
D--6---6--6-6-6--4---4--4-4-4--2---2--2-2-2---------------------------|
A--4---4--4-4-4--2---2--2-2-2--0---0--0-0-0----7---7---9---9----------|
E--------------------------------------------0-5-0-5-0-7-0-7----------|

Guitar 2
e---------------------------------------------------------------------|
B---------------------------------------------------------------------|
G---------9-----9------9----9-11b13--b13-b13r11-9---------------------|
D------11----11---11-----11-----------------------11------------------|
A---------------------------------------------------------------------|
E---------------------------------------------------------------------|

Guitar 1
e-----------------------------------------------------------------------|
B--6---6--6-6-6--4---4--4-4-4--2---2--2-2-2-----------------------------|
G--6---6--6-6-6--4---4--4-4-4--2---2--2-2-2-----------------------------|
D--6---6--6-6-6--4---4--4-4-4--2---2--2-2-2-----------------------------|
A--4---4--4-4-4--2---2--2-2-2--0---0--0-0-0----7---7---9---9------------|
E--------------------------------------------0-5-0-5-0-7-0-7------------|

Guitar 2
e-----------------------------------------------------------------------|
B-----------------------------------------------------------------------|
G----9b11r9--------9b11r9-9-9-------9-------------9b11---------9b11-----|
D-----------11-11-------------11------11-11---9-11-----11-9-11------11--|
A-----------------------------------------------------------------------|
E-----------------------------------------------------------------------|

Guitar 1
e---------------------------------------------------------------------|
B--6---7--7-7-7--4---5--5-5-5--2---2--2-2-2---------------------------|
G--6---6--6-6-6--4---4--4-4-4--2---2--2-2-2---------------------------|
D--6---6--6-6-6--4---4--4-4-4--2---2--2-2-2---------------------------|
A--4---4--4-4-4--2---2--2-2-2--0---0--0-0-0----7---7---9---9----------|
E--------------------------------------------0-5-0-5-0-7-0-7----------|

Guitar 2
e----------------------------------------------------------- - - -  -  -   -
B------------------------------------------------11--------- - - -  -  -   -
G--11-9-------------11b13r11-11-9----------11b13----b13r11-- - - -  -  -   -
D-------11-11--9-11---------------11--9-11------------------ - - -  -  -   -
A----------------------------------------------------------- - - -  -  -   -
E----------------------------------------------------------- - - -  -  -   -
                                                            to fade...

That's it! For suggestions, corrections, and requests, email me:
                        oddmenout4@yahoo.com
Comments