Rolling Stones - Dont Stop Chords & Tabs

 

Dont Stop Chords & Tabs

Rolling Stones Chords & Tabs

Version: 2 Type: Tab 0 ratings
1 star 2 stars 3 stars 4 stars 5 stars
comments

Dont Stop Tab

   
Tab 1
  A                       B           A                     B
E|-------------0-0-0----------------------------------0-0-0-------------------|
B|------2-2-2-2-2-2-2-2-2-----------------2-2-2-2-2-2-2-2-2-------------------|
G|2-2-2-2-2-2-2-2-2-2-2-2-4-4-4-4-4-4-2-2-2-2-2-2-2-2-2-2-2-4-4-4-4-4-4-2-2-2-|
D|2-2-2-2-2-2-2-2-2-2-2-2-4-4-4-4-4-4-2-2-2-2-2-2-2-2-2-2-2-4-4-4-4-4-4-2-2-2-|
A|------------------------2-2-2-2-2-2-----------------------2-2-2-2-2-2-------|
E|----------------------------------------------------------------------------|
  
VERSE 1
Tab 1(Rhythm guitar)
     (Solo guitar)
  Well you bit my lip, drew first blood, and warmed my cold cold heart
  And you wrote your name right on my back, boy your nails were sharp
 
CHORUS 
Tab 1(Rhythm guitar)
     (Solo guitar)
  Don't stop - honey don't stop
  Don't stop - Baby don't stop

VERSE 2   
Tab 1(Rhythm guitar)
     (Solo guitar)
  Well I love your screams of passion in the long hot summer nights
  But you peppered me with poison darts, and twisted in your knife

CHORUS   
Tab 1(Rhythm guitar)
     (Solo guitar)
  But don't stop
  Honey don't stop
  Don't stop
  Baby don't stop

Tab 3
E|-0-0-0---2-2-2-2---0-0-0---|  
B|-0-0-0---3-3-3-3---1-1-1---| 
G|-1-1-1---4-4-4-4---2-2-2---|  
D|-2-2-2---4-4-4-4---2-2-2---|  
A|-2-2-2-------------0-0-0---| 
E|-------------------0-0-0---|  



[ Tab from: http://www.guitartabs.cc/tabs/r/rolling_stones/dont_stop_tab_ver_2.html ]
BRIDGE 1
  
  Tab 3
  Well the only thing I ask of you is to hand me back some pride
  Tab 3
  Don't you dump me on the thirsty street (lyrics?) and hang me out to dry
  
  Tab 1
  But don't stop
  Honey don't stop
  Don't stop
  Baby don't stop
   
  Tab 2
E|------2-2-2-------2-------------0----------------------|
B|----2-------2-------2-------------4-4-4-4-----4-4------|
G|--2-----------2---------2-----4-----------2-------4----|
D|2---------------2-----2---4-4---------------2-------4--|
A|-------------------------------------------------------|
E|-------------------------------------------------------|
  Ah honey

BRIDGE 2  

Tab 3
  Well I'm losing you, I know your heart is miles away
  There's a whisper there where once there was a love(very unsure about   lyrics here)
Tab 3
  And all that's left's an image that I've filed away
  And these memories are tattered as they're talked

Tab 1 (rhythm guitar)
  But don't stop
  Ah, don't stop
  Baby, don't stop
  Ah, baby don't stop
Tab 1 (Rhythm guitar)
      (Solo guitar)
  Honey, don't stop
  Baby, don't stop
  Baby, don't stop
  Baby, don't stop

Tab 1 (Rhythm guitar)
Tab 2 (Solo guitar)
  Don't stop
  And all that's left is an image that I've filled away
  
  (Fadeout) Improvise to A-B chord pattern at the end. 

  Okay.  This song basically follows an A-B chord pattern that the Stones have used so
well in the past.
  I basically included tablature that I heard in the left earphone when I listened to
it.  The left channel is the rhythm guitar, and the right channel is the solo guitar.
I haven't filled out all the solos, so feel free to add a tab for  TAB 1 is played ONCE
HROUGH THE ENTIRE VERSE and ONCE THROUGH THE CHORUS (I went through two cycles in the
verse).  I'm unsure about the lyrics before the last bridge -- I started to go tone deaf
when I reached this point in the song.  
  I tried to include both guitars.  But in the Chorus and Verses, they playt the same
(but I think one is a Strat and the other a Tele, although which I'm not sure).  This tab
may be a bit sloppy, as it is my first and I'm writing it while I should be doing my
English paper.

Mick
Comments