Rolling Stones - Dont Stop Chords & Tabs

 

Dont Stop Chords & Tabs

Rolling Stones Chords & Tabs

Version: 1 Type: Tab 0 ratings
1 star 2 stars 3 stars 4 stars 5 stars
comments

Dont Stop Tab

   
Don't Stop
Rolling Stones
Forty Licks (2002)

Tabbed by: Ronald.L.Schuurman rlschuurman@hotmail.com
Edited by: Tom LeBlanc (asstoupee@hotmail.com)

THIS SONG IS IN OPEN G TUNING:

High to Low: D, B, G, D, G, D

CHORDS:

    A      D     G/D     E
D|--2------7------7------9-----|
B|--2------7------8------9-----|
G|--2------7------7------9-----|
D|--2------7------9------9-----|
G|--2------7------7------9-----|
D|--0------0------0------0-----|


Okay, I found this tab on another site and thought I'd submit it 
here as well. It's not much, just chords and timing, but maybe
someone can figure out the lead parts from this. Knock yourselves out.

INTRO

(A      A      D      G/D )  X2


A
Well you bit my lip and drew first blood
            D            G/D
And wore my cold, cold heart
A
And your wrote your name right on my back
   D                  G/D
Boy your nails were sharp

A
Don't stop
D             G/D
Honey don't stop
A
Don't stop
D            G/D
Baby don't stop

A
Well I love your screams of passion
D                        G/D
In the long hot summer night
A             
But you pepper me with poison darts
D                       G/D
And twisted in your knife

A
Don't stop
D            G/D
Honey don't stop
A
Don't stop
D           G/D
Baby don't stop
[ Tab from: http://www.guitartabs.cc/tabs/r/rolling_stones/dont_stop_tab.html ]
E
Well the only thing I ask of you
D                          G/D
Is to hand me back some pride
E        
Don't you dump me on some dusty street
D                  G/D
And hang me out to dry

A
Don't stop
D             G/D
Honey don't stop
A
Baby don't stop
D           G/D
Baby don't stop

Honey

Then a little solo 2 times 



|--------------------------------------|----------------------------|
|--------------------------------------|----------------------------|
|----9---11-11-11-9------------9-11-11 | 11-9----9-9-9--------9-----|
|-11---------------- ----11-9-11-------|-------11------11-9-11-11-9-|  X2
|--------------------------------------|---------- -----------------|
|--------------------------------------|----------------------------|

E
I'm losing you

                         D 
I know your heart is miles away
|---------------------|
|-14--12------12------|
|----------14---14-11-| 
|---------------------| 
|---------------------|
|---------------------|

E                                                D
There's a whisper there where once there was a storm
(and the something like this)
|-----------------------|
|-14--12------12--------|
|----------14---14-11-11| 
|-----------------------| 
|-----------------------|
|-----------------------|
E                                                  D
And all that's left is that image that I'll find a way

|---------------------|
|-14--12------12------|
|----------14---14-11-| 
|---------------------| 
|---------------------|
|---------------------|                 
 E                                      D
And some memories have tattered as they've torn

A
Don't stop
D       G/D
Don't stop
Baby don't stop
Baby don't stop
Honey baby don't stop
Honey honey
Baby don't stop
Baby don't stop
Come on honey honey don't stop
Well baby
Baby don't stop
Baby baby don't stop
My honey don't stop
Don't ya stop
Don't stop...
Comments