Rolling Stones - Dead Flowers Chords & Tabs

 

Dead Flowers Chords & Tabs

Rolling Stones Chords & Tabs

Version: 2 Type: Tab 0 ratings
1 star 2 stars 3 stars 4 stars 5 stars
comments

Dead Flowers Tab

   
Dead Flowers- Rolling Stones
Tabbed By Alec Bart


Rythm Guitar
         h
 E--0-0-0-2-2-2-2--0-0-0--3-3-3--2-2-------------------|
 B--3-3-3---3-3-3--3-3-3--3-3-3--3-3-------------------|
 G--2-2-2---2-2-2--2-2-2--0-0-0--2-2-------------------|  Main Riff
 D-----------------------------------------------------|
 A-----------------------------------------------------|
 E-----------------------------------------------------|

       h
 -0-0-0-2-----------0-----------3-----------2-----------|
 -3-3-3-----------3---3---3---3---3---3---3---3---3-----|  Variation
 -2-2-2---------2-------2---0-------0---2-------2-------|    During
 -------------------------------------------------------|     Verse
 -------------------------------------------------------|
 -------------------------------------------------------|

Play those two riffs for the verse and play different variations of the appregios also.


Chorus Chords:
[ Tab from: http://www.guitartabs.cc/tabs/r/rolling_stones/dead_flowers_tab_ver_2.html ]
A to D x2
G to D x 3
D to A to G to D

back to verse


Lead Guitar:

 -h------h-h--------|
 3-5--0-3-5-3-3-3---|
 -------------------|  Opening Lick
 -------------------|
 -------------------|
 -------------------|

 ----5---------|
 5^6---5-3-0-3-|
 --------------|   Ends All Phrases in the Verse
 --------------|
 --------------|
 --------------|

 ----5------|
 5^6---5-3--|
 -----------|  Slight Variation before Chorus
 -----------|
 -----------|
 -----------|

 ---5-7-------|
 5^6---5-3-0--| Chorus Opening
 -------------|
 -------------|
 -------------|

 --------------------5-7---------------7-10-7---------|
 5^6-5-3---------5^6-----5-3-0-3-5^7^5--------5-3-0-3-| Other Leads in Chorus
 --------4-2------------------------------------------|
 ------------4-2--------------------------------------|
 -----------------------------------------------------|
 -----------------------------------------------------|

There are other leads but they are the same as these but with tiny variations not worth  
out.
Ill tab solo later.
Comments