Rolling Stones - Brown Sugar Chords & Tabs

 

Brown Sugar Chords & Tabs

Rolling Stones Chords & Tabs

Version: 4 Type: Tab 0 ratings
1 star 2 stars 3 stars 4 stars 5 stars
comments

Brown Sugar Tab

   
"Brown Sugar" - by the Rolling Stones

Main part:

e---x---x-------8---x-------4-------6----------
b---8---9-------8--10-------4-------6----------
g---8---8-------9--10-------5-------7----------
d---8---8------10--10-------6-------8----------
a---6---6------10---8-------6-------8----------
E---x---x-------8---x-------4-------6----------
   D#  D#?  D# B#  E#  B#  G#  D#  A#  E#  B#

Where "Brown Sugar" lyrics come in:

e---3------
b---3------
g---4------
d---5------
a---5------
E---3------
    G   B#
----------------------------
Another Version:
----------------------------

Rolling Stones
Brown Sugar

!!!!!!!!!!!!!Use open G tuning -DGDGBD- !!!!!!!!!!!!!!!!!!! 

Intro
-------------------------------------------------------D----------------
-13-12-------------------------------------------------B----------------
-12-12--8-8-8-9-8--------------------------------------G----------------
-14-12--9-9-9-9-9--------------------------------------D----------------
-------------------------------------------------------G----------------
-------------------------------------------------------D----------------

Verse intro
[ Tab from: http://www.guitartabs.cc/tabs/r/rolling_stones/brown_sugar_tab_ver_4.html ]
--8-8-8--8--8--5-5-5-5-5--1-1-1-3-3--5-5-5-5----------------------------
--8-8-9--9--8--5-5-6-6-5--1-2-1-4-3--6-6-6-5----------------------------
--8-8-8--8--8--5-5-5-5-5--1-1-1-3-3--5-5-5-5----------------------------
--8-8-10-10-8--5-5-7-7-5--1-3-1-5-3--7-7-7-5----------------------------
--8-8-8--8--8--5-5-5-5-5--1-1-1-3-3--5-5-5-5----------------------------
-----------------------------------------------------------------------

Verse
  C 			 F  				  

Gold coast . . . 
--5-5-5-5-5-5-5-5--10-10-10-10-10-10-10-10------------------------------
--5-5-5-5-5-7-5-6--10-10-10-10-10-11-10-11------------------------------
--5-5-5-5-5-5-5-5--10-10-10-10-10-10-10-10------------------------------
--5-7-5-5-5-7-5-7--10-12-10-10-10-12-10-12------------------------------
--5-5-5-5-5-5-5-5--10-10-10-10-10-10-10-10------------------------------
------------------------------------------------------------------------

 C		      Bflat
-5-5-5-5-5-5-5-5--------------------------------------------------------
-5-5-5-5-5-7-5-6--------------------------------------------------------
-5-5-5-5-5-5-5-5--------------------------------------------------------
-5-7-5-5-5-7-5-7--3-3-3-3-3-3-5-3-5-5-----------------------------------
-5-5-5-5-5-5-5-5--3-3-3-3-3-3-5-3-5-5-----------------------------------
------------------------------------------------------------------------
This basic pattern varies somewhat verse to verse.


Chorus

 G                              C     
--------------------------------5-5-5-5-5-5-5-5-5-5---------------------
--------------------------------5-5-5-5-5-5-5-6-6-5---------------------
-0-0------------5---3--0-0-0-0--5-5-5-5-5-5-5-5-5-5---------------------
-0-0-----0-2-0-(5)-(3)-0-0-2-0--5-5-7-5-7-5-5-7-7-5---------------------
-0-0-3/4-0---0-(5)-(3)-0-0-0-0--5-5-5-5-5-5-5-5-5-5---------------------
------------------------------------------------------------------------
Brown sugar  . . . .



Comments