Rolling Stones - Brown Sugar Chords & Tabs

 

Brown Sugar Chords & Tabs

Rolling Stones Chords & Tabs

Version: 3 Type: Tab 1 rating
1 star 2 stars 3 stars 4 stars 5 stars
comments

Brown Sugar Tab

   
#----------------------------------PLEASE NOTE---------------------------------#
#This file is the author's own work and represents their interpretation of the #
#song. You may only use this file for private study, scholarship, or research. #
#------------------------------------------------------------------------------##


BROWN SUGAR

Words and music by Mick Jagger & Keith Richards

Album: Sticky Fingers (1971)

Tabber: Unknownn



  
Intro: (Play 4x)
------------------
 
     C  G     C    F    C
 D|---------|--------------|
 B|--13-12--|-5-5--6-6--5--|
 G|--12-12--|-5-5--5-5--5--| 
 D|--14-12--|-5-5--7-7--5--|
 G|---------|--------------|
 D|---------|--------------|


Riff: (Play 2x)
-----------------
[ Tab from: http://www.guitartabs.cc/tabs/r/rolling_stones/brown_sugar_tab_ver_3.html ]
  Eb  Eb11  Eb   C   C11   C  Ab          Bb   F      C
 |-------------|-------------|---------------|----------||
 |-8--8--8---8-|-5--6-6--6-5-|-1--1-1-1--3-3-|-6--6-6-5-||
 |-8--10-10--8-|-5--5-5--5-5-|-1--3-1-3--5-3-|-5--5-5-5-|| 
 |-8--8--8---8-|-5--7-7--7-5-|-1--1-1-1--3-3-|-7--7-7-5-||
 |-------------|-------------|---------------|----------||
 |-------------|-------------|---------------|----------||


Verse:
---------


   C               C               F            F           (repeat C)
   d  d  d  u  d.    u d  d u  d               
 |---------------|---------------|------------|------------|-----|----|
 |-5--6--5--6--5-|---5-6--5-5--6-|-10--11--10-|-10--11--10-|-----|----|
 |-5--5--5--5--5-|---5-5--5-5--5-|-10--10--10-|-10--10--10-|-----|----|
 |-5--7--5--7--5-|---5-7--5-5--7-|-10--12--10-|-10--12--10-|-----|----|
 |---------------|---------------|------------|------------|-----|----|
 |---------------|---------------|------------|------------|-----|----|
    

    Bb    C             
 D|-----|--------------|
 B|--3--|-5--5-5--5--5-|
 G|--3--|-5--5-5--5--5-| 
 D|--3--|-5--5-5--5--5-|
 G|-----|--------------|
 D|-----|--------------|
   
   
  G
|-3-------|-------------------|---------------|
|-3-------|-------------------|-5-6-5--------|
|-0-------|-------------------|-5-5-5--------|
|-0-------|----------7/9--5---|-5-7-5--------|
|-2-------|-------5-----------|--------------|
|-3-------|--5/7--------------|--------------|
           
  Brown sugar ...
Comments