Rolling Stones - Angie Chords & Tabs

 

Angie Chords & Tabs

Rolling Stones Chords & Tabs

Version: 2 Type: Tab 0 ratings
1 star 2 stars 3 stars 4 stars 5 stars
comments

Angie Tab

ANGIE-intro
the rolling stones
    
   *harmonic
-------0-0-0---0-3-0-------0-----------0-----------0-----------3-------
-------1---1-----1-1-----1---1-------3---3-----3-------------3---3-----
-------2---2---------2-------------1-------1---1-----------5-------5---
-------2-----------------------------------------------5-------------5-
-*12*--0---------------------------------------------------------------
-------------------------------0-------------4-------------------------


------1--------------------0----------
--------1---1--------------1----------
-3-2------2-------0--------0-----2----
-3-3------------3-3--2-2---0---0---0--
--------------3------3-3--------------
------------------------------2-------
good luck on this

CONNOR
[ Tab from: http://www.guitartabs.cc/tabs/r/rolling_stones/angie_tab_ver_2.html ]
Comments