Rolling Stones - All Down The Line Chords & Tabs

 

All Down The Line Chords & Tabs

Rolling Stones Chords & Tabs

Version: 1 Type: Tab 0 ratings
1 star 2 stars 3 stars 4 stars 5 stars
comments

All Down The Line Tab

   
ROLLING STONES - ALL DOWN THE LINE
(Jagger/Richards)

Tabber: Mord_Wraith
E-mail: thundastruck@hotmail.com
Date: 3/29/2005

Tuning (low to high): DGDGBD

Chords used:

Intro:

D|-------------------------------------------------|
B|---5h6-5---------------------5h6-5---------------|
G|---7---7-----7-7-7-7---5-----7---7-----7---7-7---|
D|---------------------5---5-------------7---7-7---|
G|-----------7-------------------------7---7-------|
D|-------------------------------------------------|

D|-----------------------------|
B|---5h6-5---------------------|
G|---7---7-----7-7-7-7---------|
D|---------------------5-5-5---|
G|-----------7-----------------|
D|-----------------------------|

Verse:
[ Tab from: http://www.guitartabs.cc/tabs/r/rolling_stones/all_down_the_line_tab.html ]
                       D        G/D      C
D|-----------------------------------------------------------|
B|---------------------7-7---7-7-8-7-7---5555----------------|
G|---------------------7-7---7-7-7-7-7---5555----------------|
D|---0-2-0-2-0-2-0-2---7-7---7-7-9-7-7---5555---0-2-0-2-etc.-|
G|---0-0-0-0-0-0-0-0---7-7---7-7-7-7-7---5555---0-0-0-0------|
D|-----------------------------------------------------------|
     Yeah...                           All down the line...

Pre-chorus:

D|--------------|
B|---777--8-8---|
G|---777--7-7---|
D|---777--9-9---|
G|---777--7-7---|
D|--------------|

Chorus:

D|-------------------------------------|
B|-----------------------------777-8---|  play two times
G|-----------------------------777-7---| 
D|---5-7-5-7-5-7-5-7--0-0-2-0--777-9---| (improvise this part
G|---5-5-5-5-5-5-5-5--0-0-0-0--777-7---|  a bit)
D|-------------------------------------|
           We'll be watchin...

D|-------------------------------------------|
B|-------------------------------------------|
G|-------------------------------------------|
D|---5-5-7-8-7-8-7-5-7---0-0-2-0---0-0-2-0---|
G|---5-5-5-5-5-5-5-5-5---0-0-0-0---0-0-0-0---|
D|-------------------------------------------|
     Can't say yes... ...be right there...

D|-----------------------|
B|-----------------------|
G|-----------------------|
D|---5-5-7-8-7-8-7-5-7---|
G|---5-5-5-5-5-5-5-5-5---|
D|-----------------------|
     Need a sanctified...

---

There it is! Do some heavy improv for a lot of the rhythm, it's very fun!
Comments