Rohhi - Mertz Chords & Tabs

 

Mertz Chords & Tabs

Rohhi Chords & Tabs

Version: 1 Type: Tab 1 rating
1 star 2 stars 3 stars 4 stars 5 stars
comments

Mertz Tab

E-------------|-------3-----|-3-----2-----|-2-----0-----|
B-0-----1-----|-0---------0-|-----0-----0-|-----1-----1-|
G-----0-----0-|-----0---0---|---0-----0---|---0-----0---|
D---0-----2---|---0---------|-2-----0-----|-------------|
A-------------|-------------|-------------|-3-----------|
E-3-----3-----|-3-----------|-------------|-------------|
 
                                          
E-------------|-------------|-3-----5-----|
B-3-----1-----|-1-----0-----|-----0-----2-|
G-----0-----2-|-----2-----0-|---0-----0---|
D---0-----2---|---0-----0---|-2-----------|
A-2-----0-----|-------------|-------0-----|
E-------------|-2-----3-----|-------------|


E-------1------|
B-3---3---2----|
G---0----------|
D-0---------3--|
A-------------0|
E--------------|
                            
  
E-0-----------|-------------|-------3-----|-8-----2-----|
B-----1-3-----|-1-----3-----|-0---------0-|-----5-----1-|
G---0-------4-|-----2-----2-|-----0---0---|---5-----2---|
D---------5---|---2-----0---|---0---2-----|-------0-----|
A-3-----------|-0-----------|-------------|-0-----------|
E-------3-----|-------2-----|-3-----------|-------------|

 
E-2----2/3--3------|
B----1-------------|
G------------------|
D------------------|
A------------------|
E-----------5------|

[ Tab from: http://www.guitartabs.cc/tabs/r/rohhi/mertz_tab.html ]
Comments