Rogue Wave - Eyes Chords & Tabs

 

Eyes Chords & Tabs

Rogue Wave Chords & Tabs

Version: 1 Type: Tab

Eyes Tab

This is the lead guitar part only
By: Easy E 417
Sugestions Fwd. to ebroome@gmail.com

Intro
E-------------------------------|
B-------9----9---9--------------|
G--8/10---10-------10/8--6--6---|
D-------------------------------|
A-------------------------------|
E-------------------------------|
[ Tab from: http://www.guitartabs.cc/tabs/r/rogue_wave/eyes_tab.html ]
E----------------------------------|
B-------9----9---9----9------------|
G--8/10---10-------10---10/8--6--6-|
D----------------------------------|
A----------------------------------|
E----------------------------------|

"in your eyes In your eyes in your eyes in your eyes"

E---------------------------------|
B--18-18-14-14---18-18-14-15-14---|
G---------------------------------|   x3
D---------------------------------|
A---------------------------------|
E---------------------------------|

Solo

E---------------------------|
B-------9-9-9---9/11--------|
G--10/8-------10-----10-10--|  x4
D---------------------------|
A---------------------------|
E---------------------------|