Rogers Fred - Wonderful Day In The Neighborhood Chords & Tabs

 

Wonderful Day In The Neighborhood Chords & Tabs

Rogers Fred Chords & Tabs

Version: 1 Type: Bass Tab 0 ratings
1 star 2 stars 3 stars 4 stars 5 stars
comments

Wonderful Day In The Neighborhood Bass Tab

E-----------------------
A-----------------------
D-----------------------
G--8-8-8-8-8-8-8-10-8-5-

E----------------------
A----------------------
D----------------------
G--5-5-5-5-5-5-5-7-5-2-
[ Tab from: http://www.guitartabs.cc/tabs/r/rogers_fred/wonderful_day_in_the_neighborhood_btab.html ]
E---------------------
A---------------------
D---------------------
G--2-2-2-2-2-2-2-5-2-0

E-------------
A-------------
D-------------
G--0-2-4-5-8-6
 Won't you be my neighbor.

In memory of the late Fred Rogers.
Comments