Roger Clyne - Girly Chords & Tabs

 

Girly Chords & Tabs

Roger Clyne Chords & Tabs

Version: 1 Type: Tab 0 ratings
1 star 2 stars 3 stars 4 stars 5 stars
comments

Girly Tab

   
Girly
The Refreshments


Intro:
Feedback (Pitch: D)

Riff:
 E		A		E		A
|--0--0--0--0--|--0--0--0-(hold)|--0--0--0--0--|--0--0--0-(hold)|
|-15-14-12--9--|-10--9-10--10h12|/15-14-12--9--|-10--9-10--10h12|
|--------------|----------------|--------------|----------------|
|--------------|----------------|--------------|----------------|
|--------------|----------------|--------------|----------------|
|--------------|----------------|--------------|----------------|


 E		  A		  B  		  B
|--0--0--0--0--|--0--0--0-------|--0--0--0--0--|-----------------|
|/15-14-12--9--|-10--9-10-10/9--|--7-10--9--7--|-----------------|
|--------------|----------------|--------------|--4-4-2-2-1-1----|
|--------------|----------------|--------------|-------------4-2-|
|--------------|----------------|--------------|-----------------|
|--------------|----------------|--------------|-----------------|

Verse  (Repeat 2 times/verse)
 E                A               E               A
|----------------|----------------|----------------|----------------|
|----------------|----------------|----------------|----------------|
|----------------|-----2--2-------|----------------|-2-0h2(hold)----|
|-2--2-----------|-----2--2-------|-2--2-----------|-2-0h2h4--2h4p2-|
|-2--2-----------|--0-------------|-2--2-----------|-0--------------|
|-0--0--0h2h3----|----------0-3-0-|-0--0--0h2h3----|----------------|
[ Tab from: http://www.guitartabs.cc/tabs/r/roger_clyne/girly_tab.html ]
  E               A               B               B
|----------------|----------------|----------------|----------------|
|----------------|----------------|----------------|----------------|
|----------------|----2--2--------|--4-0h2h4-------|----------------|
|-2--2-----------|----2--2--------|--4-0h2h4-0h2h4-|-2--1-----------|
|-2--2-----------|--0-------------|--2-------------|------4--2------|
|-0--0--0h2h3----|----------0-3-0-|----------------|----------------|


Verse:
E                      A
Well, I'm going to the hardware store.
          E                    A
I'm gonna buy you a really big hammer.
E                          A               B
Girly won't you pull these nails out of my heart.
E                     A
Then I'm going to the sporting goods store.
          E                      A
I'm gonna buy you a really heavy baseball bat.
E                           A                  B
Girly won't you knock these thoughts out of my head.

Chorus:
A                B
Beat me 'til I'm black and blue
        E            A
and I'm hangin' by a thread.
          B
And I can get back up
           A
and we can do it all over again.

Riff

Well, I'm going to the liquor store.
I'm gonna buy you a really big bottle.
Girly won't you pour some light into my life.
Then I'm going to the firearms store.
I'm gonna buy you a really pretty hand gun.
Girly won't you blow this mess out of my mind.

Chorus:
Beat me 'til I'm black and blue,
and I'm very nearly dead.
And I can get back up
and we can do it all over again.

Riff
 w/"All over again" x3

Solo

"Third verse, same as the first!"
Verse 1

Chorus:
Beat me 'til I'm black and blue,
and my butt is bloody red.
And I can get back up
and we can do it all over again

Riff
 w/"All over again" x3

Solo

End on E

CHORDS:
E: 022100   A: X02220   B: X24442
Comments