Rodry Y Guido - Jealous Girl Chords & Tabs

 

Jealous Girl Chords & Tabs

Rodry Y Guido Chords & Tabs

Version: 1 Type: Bass Tab 0 ratings
1 star 2 stars 3 stars 4 stars 5 stars
comments

Jealous Girl Bass Tab

INTRO

G  --------------------5--2--|--------------------------
D  --------7--7--5--5*-------|--------7-7-5-5/3---------
A  --0--0--------------------|--0--0------------5--3----
E  --------------------------|--------------------------

VERSO
[ Tab from: http://www.guitartabs.cc/tabs/r/rodry_y_guido/jealous_girl_btab.html ]
G  ---------------------5---------------|------------------------
D  ------------7--7--5-----5--6--7------|------7--5--------------
A  -----0--0----------------------------|--0--0------7--5--------
E  -------------------------------------|------------------5--3--

ESTRIBILLO

G  ---------12---------10-----|---------14---------12-----|
D  --10-10-----10--10-----12--|--12-12-----12--12-----14--|
A  ---------------------------|---------------------------|
E  ---------------------------|---------------------------|
Comments