Rodriguez Robert - El Mariachi Chords & Tabs

 

El Mariachi Chords & Tabs

Rodriguez Robert Chords & Tabs

Version: 1 Type: Tab 0 ratings
1 star 2 stars 3 stars 4 stars 5 stars
comments

El Mariachi Tab

   
El Mariachi - from 'Once upon a Time in Mexico'
The backing guitar is further down - it isn't perfect but it sound alright.

Lead Guitar
                                                                             
E||------------------------|-------------------------|----------------------|
B||--------1-0---0-1-------|-------------------------|----------------------|
G||------2-----2-----------|---4-4-4-4-2-2-2/4-------|-----2-2/-4--4--------|
D||------------------------|-------------------------|----------------------|
A||------------------------|-------------------------|----------------------|
E||------------------------|-------------------------|----------------------|


                                                  
-----2-0-2-3/5-7----|----------------------------|
--------------------|---------------3-1-0-1-1----|
--------------------|----------------------------|
--------------------|------------2---------------|
--------------------|------0--0------------------|
--------------------|--2-3-----------------------|


                                                                         
----------------------------------|--------0--2--3--3/5-3--5--5/7-5--7--|
--------------3-1-0-1-0-----------|-------------------------------------|
----------------------------------|-------------------------------------|
----------------------------2-----|-----1-------------------------------|
-----------2-------------2-----2--|--2----------------------------------|
--5/-3--0-------------------------|-------------------------------------|


                                                                              
--7/8-7--8--8/10-8--10--10/12-0-2-2/3-2--0--|-------0-2-3-5-5/7-0-2-3--5--7--|
--------------------------------------------|--1-----------------------------|
--------------------------------------------|--------------------------------|
--------------------------------------------|--------------------------------|
--------------------------------------------|--------------------------------|
--------------------------------------------|--------------------------------|


                                                              
--7----7/8-7-5-7-7-----------|-------------------------------|
-----------------------5-5-5-|--2/4-4--4--4--5--5/7-7--------|
-----------------------------|-------------------------------|
-----------------------------|-------------------------------|
-----------------------------|-------------------------------|
-----------------------------|-------------------------------|


                                                        
--2/3-2h0h2h0-2-0--2-0--------|--2--3--3--5--5/7-------|
------------------------------|------------------------|
------------------------------|------------------------|
------------------------------|------------------------|
------------------------------|------------------------|
------------------------------|------------------------|


                                                                           
--2--3--3--5--5/7-------|--2--3--3--5--5/7---8----|--7------12--12--------|
------------------------|-------------------------|-----------------------|
------------------------|-------------------------|-----------------------|
------------------------|-------------------------|-----------------------|
------------------------|-------------------------|-----------------------|
------------------------|-------------------------|-----------------------|


                                                                           
--2--3--3/-5--7--------|--2h-3--3--5--5/7-------|--2-------0-2/3-2--0h-2--|
-----------------------|------------------------|-------------------------|
-----------------------|------------------------|-------------------------|
-----------------------|------------------------|-------------------------|
-----------------------|------------------------|-------------------------|
-----------------------|------------------------|-------------------------|


                                                     
--0----------------|------------12--12--12--10--10--|
-------------------|--------------------------------|
-------------------|--------------------------------|
-------------------|--------------------------------|
-------------------|--------------------------------|
-------------------|--------------------------------|


                                                                      
--10/-8--8--8/-7---7-----------|------------------|------------------|
-------------------------------|------------------|------------------|
-------------------------------|------------------|------------------|
-------------------------------|------------------|------------------|
-------------------------------|------------------|------------------|
-------------------------------|------------------|------------------|

[ Tab from: http://www.guitartabs.cc/tabs/r/rodriguez_robert/el_mariachi_tab.html ]
                                                                             
------------------|------------------|------------------|------------------||
------------------|------------------|------------------|------------------||
------------------|------------------|------------------|------------------||
------------------|------------------|------------------|------------------||
------------------|------------------|------------------|------------------||
------------------|------------------|------------------|------------------||


Backing Guitar
                                                             
E||--------------------3h2-0--|--------------------3--2--0--|
B||--------------1------------|-----------------------------|
G||--------2------------------|--------------0--------------|
D||-----2-----2-----2---------|--------2--------------------|
A||--0------------------------|-----2-----2-----2-----------|
E||---------------------------|--0--------------------------|


                                                                             
--------------2--------2/3-|--------------0-----|---------------------0-----|
-----------0--------0------|--------------------|---------------------------|
--------2--------2---------|--------0-----------|---------------2-----------|
-----1---------------------|--------------------|------------2-----2-----2--|
--2------------------------|-----2-----2-----2--|------0--0-----------------|
---------------------------|--0-----------------|--2-3----------------------|


                                                             
--------------------0-----------|--------------0/3-2--0--2--|
--1-----0-----------------0-----|-----------0---------------|
-----2-----------0-----0-----0--|--------2------------------|
--------------2-----------------|-----1---------------------|
-----------2--------------------|--2------------------------|
--5/-3--0-----------------------|---------------------------|


                                                                            
--------------0--------|--------------0--------|------------5-7------------|
-----------------------|-----------1-----------|----------------8----0-----|
-----------0-----------|--------2--------------|--------0---------9-----0--|
--------2--------------|-----2-----------------|------2--------------------|
-----2-----------------|--0--------------------|----------2----------------|
--0--------------------|-----------------------|---------------------------|


                                                                               
--------------2-----------|--------------0----------|--------------0----------|
-----------0--------0-----|--------------------0----|-----------1-------3h-1--|
--------2--------2-----2--|-----------0-----0-------|--------2----------------|
-----1--------------------|--------2----------------|-----2-------------------|
--2-----------------------|-----2-------------------|--0----------------------|
--------------------------|--0----------------------|-------------------------|


                                                      
--------------0-----------|--------------2h-3--2h-0--|
--0--------0--------3h-1--|-----------0--------------|
--------0--------0--------|--------2-----------------|
-----2--------------------|-----1--------------------|
--------------------------|--2-----------------------|
--0-----------------------|--------------------------|


                                                              
--------------0-----------|--------------------------0-------|
--------------------0-----|--1-----0-1-----0-1-----0-----1---|
-----------0-----0-----0--|------2-------2-------2-----2---2-|
--------2-----------------|----2-------2-------2-------------|
-----2--------------------|----------------------------------|
--0-----------------------|----------------------------------|


                                                                           
---------------0--------|----------------------|--0-----------0-----2h-3--|
-------0----0-----------|-----------0----------|-----------0--------------|
-----0----0-------------|--------2-------------|--------0--------0--------|
---2--------------------|-----1----------------|-----2--------------------|
------------------------|--2-------------------|--------------------------|
------------------------|----------------------|--0-----------------------|


  Am                                                  
--0-----------0-----2h-3--|--0-----------0-----2h-3--|
-----------1--------------|-----------0--------------|
--------2--------2--------|--------0--------0--------|
-----2--------------------|-----2--------------------|
--0-----------------------|--------------------------|
--------------------------|--0-----------------------|


                                                       
--2-----------------2/3-2--|--0-----------0-----2h-3--|
--------------0------------|-----------0--------------|
-----------2-----2---------|--------0--------0--------|
--------1------------------|-----2--------------------|
--2--2---------------------|--------------------------|
---------------------------|--0-----------------------|


  Am                                                  
--0-----------0-----2h-3--|--0-----------0-----2h-3--|
-----------1--------------|-----------0--------------|
--------2--------2--------|--------0--------0--------|
-----2--------------------|-----2--------------------|
--0-----------------------|--------------------------|
--------------------------|--0-----------------------|


                                                 
--2-----------------2/3-2--|--0----------------||
--------------0------------|--0----------------||
-----------2-----2---------|--0----------------||
--------1------------------|--2----------------||
--2--2---------------------|--2----------------||
---------------------------|--0----------------||


Comments