Rodox - Incinerador Chords & Tabs

 

Incinerador Chords & Tabs

Rodox Chords & Tabs

Version: 1 Type: Tab 0 ratings
1 star 2 stars 3 stars 4 stars 5 stars
comments

Incinerador Tab

   
(Letra:Rodolfo(ex:Raimundos) / Música:Rodolfo(ex-Raimundos) e Schaefer)



Intro:

E---------------------------------------------------}       ]    
B---------------------------------------------------}       ]
G---------------------------------------------------} 3x    ]
D---11-11-11-11-12-9--------------------------------}       ]
A---11-11-11-11-12-9--------------------------------}       ]
D---11-11-11-11-12-9--------------------------------}       ]
                                                            ]  2x
E---------------------------------------------------        ]
B---------------------------------------------------        ]
G---------------------------------------------------        ]
D---------------------------------------------------        ]
A-----------------------------4-4-5-----------------        ]
D--0-0-0-0--4-4-4-4--7-7-7-7------------------------        ]

Contra o vento, contra o invasor
Levantei a mão
Nova lei que me deu nova 
.....visão.... (deixa soar o acorde com som limpo)
E---------------------------------------------------
B---------------------------------------------------
G---------------------------------------------------
D-----12--------------------------------------------
A-----12--------------------------------------------
D-----12--------------------------------------------

   Cortei todo o laço com a morte....
E---------------------------------------------------  
B---------------------------------------------------
G---------------------------------------------------
D---11-11-11-11-12-9--------------------------------
A---11-11-11-11-12-9--------------------------------
D---11-11-11-11-12-9--------------------------------

        Libertei ......minha alma da..................visão...             
E---------------------------------------------------------------------  
B---------------------------------------------------------------------
G---------------------------------------------------------------------
D---11-11-11-11-12-9---------11-11-11-11-12-9------------2------------
A---11-11-11-11-12-9---------11-11-11-11-12-9------------2------------
D---11-11-11-11-12-9---------11-11-11-11-12-9------------2------------

      Corro sem cansar...e a minha vida segue....
E---------------------------------------------------  
B---------------------------------------------------
G---------------------------------------------------
D-4-4-4-4-4-4-4-4-4-4-4-4-4-4-4-4-4-4-4-4-4-4-4-4-4-
A-4-4-4-4-4-4-4-4-4-4-4-4-4-4-4-4-4-4-4-4-4-4-4-4-4-
D-4-4-4-4-4-4-4-4-4-4-4-4-4-4-4-4-4-4-4-4-4-4-4-4-4-

Chorus:
     Como um inci...nerador.....Meu dom pode queimar..
E---------------------------------------------------  
B---------------------------------------------------
G---------------------------------------------------
D---11-11-11--------2-2-2-----11-11-11---------2-2-2
A---11-11-11--------2-2-2-----11-11-11---------2-2-2
D---11-11-11--------2-2-2-----11-11-11---------2-2-2

...Não fiz da saudade o meu refém....Quando eu arranquei o fio que me prende
E------------------------------------------------------------------ 
B------------------------------------------------------------------
G------------------------------------------------------------------
D---7-7-7----------4-4-4-----------7-7-7------------2-2-2----------
A---7-7-7----------4-4-4-----------7-7-7------------2-2-2----------
D---7-7-7----------4-4-4-----------7-7-7------------2-2-2----------
[ Tab from: http://www.guitartabs.cc/tabs/r/rodox/incinerador_tab.html ]
VÁRIAS VEZES:
E---------------------------------------------------  
B---------------------------------------------------
G---------------------------------------------------
D---11-11-11-11-12-9--------------------------------
A---11-11-11-11-12-9--------------------------------
D---11-11-11-11-12-9--------------------------------

      Corro sem cansar...e a minha vida segue....
E---------------------------------------------------  
B---------------------------------------------------
G---------------------------------------------------
D-4-4-4-4-4-4-4-4-4-4-4-4-4-4-4-4-4-4-4-4-4-4-4-4-4-
A-4-4-4-4-4-4-4-4-4-4-4-4-4-4-4-4-4-4-4-4-4-4-4-4-4-
D-4-4-4-4-4-4-4-4-4-4-4-4-4-4-4-4-4-4-4-4-4-4-4-4-4-

Chorus: 

...Não fiz da saudade o meu refém....Quando eu arranquei.
E------------------------------------------------------------------ 
B------------------------------------------------------------------
G------------------------------------------------------------------
D---7-7-7----------4-4-4-----------7-7-7------------2--------------
A---7-7-7----------4-4-4-----------7-7-7------------2--------------
D---7-7-7----------4-4-4-----------7-7-7------------2--------------

E--------------------------------------------------- }
B--------------------------------------------------- }
G--------------------------------------------------- } 4x
D--------------------------------------------------- }
A------------0-------------------------------------- }
D----0---3-----1------------------------------------ }

E--------------------------------------------------- }
B--------------------------------------------------- }
G--------------------------------------------------- } 3x
D--0-0-0-0--3-3-3-3--7-7-7-7--1-1-1-1---0-0-0-0-0-0- }
A--0-0-0-0--3-3-3-3--7-7-7-7--1-1-1-1---0-0-0-0-0-0- }
D--0-0-0-0--3-3-3-3--7-7-7-7--1-1-1-1---0-0-0-0-0-0- }

(2) = (palm-mute)<
E---------------------------------------------------
B---------------------------------------------------
G---------------------------------------------------
D--0-0-0-0--3-3-3-3--7-7-7-7---(2)-(2)-(2)----------
A--0-0-0-0--3-3-3-3--7-7-7-7---(2)-(2)-(2)----------
D--0-0-0-0--3-3-3-3--7-7-7-7---(2)-(2)-(2)----------

E---------------------------------------------------}           
B---------------------------------------------------}      
G---------------------------------------------------} 8x    
D---11-11-11-11-12-9--------------------------------}       
A---11-11-11-11-12-9--------------------------------}       
D---11-11-11-11-12-9--------------------------------} 

      Corro sem cansar...e a minha vida segue....
E---------------------------------------------------  
B---------------------------------------------------
G---------------------------------------------------
D-4-4-4-4-4-4-4-4-4-4-4-4-4-4-4-4-4-4-4-4-4-4-4-4-4-
A-4-4-4-4-4-4-4-4-4-4-4-4-4-4-4-4-4-4-4-4-4-4-4-4-4-
D-4-4-4-4-4-4-4-4-4-4-4-4-4-4-4-4-4-4-4-4-4-4-4-4-4-

Chorus REPEAT 2X

 

...Não fiz da saudade o meu refém....Quando eu arranquei.
E------------------------------------------------------------------ 
B------------------------------------------------------------------
G------------------------------------------------------------------
D---7-7-7----------4-4-4-----------7-7-7------------0-0-0-0-0------
A---7-7-7----------4-4-4-----------7-7-7------------0-0-0-0-0------
D---7-7-7----------4-4-4-----------7-7-7------------0-0-0-0-0------

 for end:
E---------------------------------------------------
B---------------------------------------------------
G---------------------------------------------------
D-0-0---0-0--0---0-0---0-0--0----0-0---0-0--0-------
A-0-0---0-0--0---0-0---0-0--0----0-0---0-0--0-------
D-0-0---0-0--0---0-0---0-0--0----0-0---0-0--0-------

 end:
E---------------------------------------------------
B---------------------------------------------------
G---------------------------------------------------
D---------------------------------------------------
A---------------------0-0-0-0--6-6-6----------------
D---0-0-0-0--3-3-3-3--------------------------------
Comments