Rod Stewart - Maggie May Chords & Tabs

 

Maggie May Chords & Tabs

Rod Stewart Chords & Tabs

Version: 4 Type: Tab 0 ratings
1 star 2 stars 3 stars 4 stars 5 stars
comments

Maggie May Tab

   
Maggie May
Intro:
|----5------3---0------------3--0----5----3p2p1-----0------------|
|-----------3------1--1--3----------------1-----3----------------|
|-------5-------2--2-----0------2p0--2p0--------0---2---2-----2--| 2x
|--7----------------------------------------------------0--5--2--|
|----------------------------------------------------------3--0--|
|----------------------------------------------------------------|

|-0-7-5-3-2-0-----0----------0-0-7-5-3--2-0-----0---------0----0-5-0---|
|-0-----------------0-2---4--0-0-------------------0-2--4-0--3-3-3-3-0-|
|-0--------------------------0-0--------------------------1----2---2-0-|
|-2---0-2--------------------2-2---0-2--------------------2--0---------|
|-------------2-------0---2-----------------2--------0--2--------------|
|-0---------------0-3--------0-0----------------0--3------0------------|


|-3-3-3---3---3-3-3-7-5-3-----0-5-0h2-2---3-3-3---3---3-3-3h5-7-5-2-3|
|-5---5p3-3---3---3-3-3-3---3-3-3-3---3---5---5p3-3---3-3-3---3-3-3-3|
|-0---0---0-0-0---0-0-2-2p0---2---0---2---0---0---0-0-0-0-0---0-2-4-4|
|-----------0---------0-0---0-----------0-----------0-----------0-4-5|
|--------------------------------------------------------------------|
|-----------3---------------------------------------3----------------|
A                             G                                        D
Wake up Maggie I think I've got something to say to you
       A                                G                        D
It's late September and I really should be back at school
  G                            D                G                      A                 
                 I know I keep you amused But I feel I'm being used
      Em                               F#m          Em     Asus4    A
Oh Maggie I couldn't have tried any more
          Em                           A               Em              A
You lured me away from home just to save you from being a--lone
            Em                       G                 A        D
You stole my heart, and that's what really hurts

The morning sun when it's in your face really shows your age
But that don't worry me none, in my eyes you're everything
I laughed at all your jokes, my love you didn't need to coax
Oh Maggie I couldn't have tried any more

You lured me away from home just to save you from being a--lone
You stole my soul that's a pain I can do without

All I needed was a friend to lend a guiding hand
But you turned into a lover and mother what a lover you wore me out
All you did was wreck my bed and in the morning kick me in the head
Oh Maggie I couldn't have tried any more
[ Tab from: http://www.guitartabs.cc/tabs/r/rod_stewart/maggie_may_tab_ver_4.html ]
You lured me away from home 'cause you didn't want to be alone
You stole my heart I couldn't leave you if I tried
Solo 1:
   Em7                  A                    D            G
|----------------------------------------------------------------|
|----------------------------------------------------------------|
|----------------------------------------------------------------|
|---------7-----------------7---------------7-7h9----------------|
|--0s9-9----7b8r7p5---0s9-9---7b8-7p5---0s9-------9~-7b8r7p5---5-|
|-------------------7-----------------7----------------------7---|
  Em                   D                     G            D
|------------------------------------------------------------------|
|------------------------------------------------------------------|
|-------------------------7--------------------------------9b117~~|
|--------------7--------------7--7----------------------7----------|
|--5----0s9-9----7b8r7p5---------7h9p7s5----7b8r7p5-0s9------------|
|----7-------------------7---------------7-------------------------|
I suppose I should collect my books and get back to school
Or steal my daddy's cue make a living out of playing pool
Or find myself a rock and roll band that needs a helping hand
Oh Maggie, I wish I'd never seen your face

You made a first class fool out of me, but I'm as blind as a fool can be
You stole my heart but I love you any--way

Solo 2:
   Em7                  A                    D            G
|----------------------------------------------------------------------|
|----------------------------------------------------------------------|
|---------------------------------------------------7------------------|
|---------7-----------------7--------------------7--7h9------7-9-9b10--|
|--0s9-9----7b8r7p5---0s9-9---0s7-7-5---0s9--0s9--------0s9~-----------|
|-------------------7-----------------7--------------------------------|

|----------------------------------------------------------------------|
|-----------------------------------10----------------------------10---|
|--------------------------0s11-11---------9b10-9p7-------0s11-11------|
|-9b9.5r9------77----------------------------------9~~----------------|
|----------9-----------9-----------------------------------------------|
|----------------------------------------------------------------------|

|----------------------------------------------------------------------|
|----------------------------------------------------------------------|
|--9b10-9p7-------9b10r9p7~---9p7-----79b10---7-----7-----------------|
|-----------9~~--------------------9---------------7h97---------------|
|----------------------------------------------------------9s7--5---0s9|
|----------------------------------------------------------------------|

|----------------------------------------------------------------------|
|----------------------------------------------------------------------|
|-------------------------------------------------------------7--------|
|-----7-------------------------7-----------------------7-7-9---99b10-|
|-9------9s7--5------------0s9----9--9s7p5----5----0s9-----------------|
|------------------7--5---------------------7--7-----------------------|

|-------------------------------------------------------10-------------|
|---------------------------------------10-----------------10----------|
|------------------------------0s11-11------9--9p7-7-----------9b10-9p7|
|-9b10r9p7------7--7~-----7---------------------------9----------------|
|-----------9----------9----9------------------------------------------|
|----------------------------------------------------------------------|

|----------------------------------------------------------------------|
|--------------------10----10--10--------------------------------------|
|------9--7~---0s11-----11--------0s9p7--9b10--7~~---7--7h9------------|
|--9----------------------------------------------------7h9-7----------|
|-------------------------------------------------------------0s7--5---|
|----------------------------------------------------------------------|

Outro Chords:
Em    G     D
Comments